Song name
# A B C D E F G H I J K L M N O P Q R S T U V W X Y Z

Thrice - Earth Will Shake tab

-------------------------------------------------------------------------------
			     The Earth Will Shake - Thrice
-------------------------------------------------------------------------------
Tabbed by: Jason Paszek (Autopoietic Boy)
Email: J.W.Paszek.Guitar.Instruction@gmail.com

Tuning: AADGBe

Intro: 2x

e|--1------------------------------------0--------3p0---0--------------------|
B|--3------------------------------------1------------1----------------------|
G|--2------------------------------------2-----------------------------------|
D|---------------------------------------2-----------------------------------|
A|---------------------------------------------------------------------------|
E|---------------------------------------------------------------------------|




Verse 1 pt. 1:

Gtr 1.

e|---------------------------------------------------------------------------|
B|---------------------------------------------------------------------------|
G|--7------------------------------------------------------------------------|
D|--0------------------------------------------------------------------------|
A|--0------------------------------------------------------------------------|
E|--5------------------------------------------------------------------------|


        pm..    pm     pm... 
e|-----------0-----0---------0-----------------------------------------------|
B|-----------5-----5---------5-----------------------------------------------|
G|-----------5-----5---------5-----------------------------------------------|
D|--7--------7-----7---------7-----------------------------------------------|
A|--0----0---0---0-0----0-0--0-----------------------------------------------|
E|--0----0---0---0-0----0-0--0---Repeat--------------------------------------|



Gtr 1.

e|---------------------------------------------------------------------------|
B|---------------------------------------------------------------------------|
G|--7------------------------------------------------------------------------|
D|--0------------------------------------------------------------------------|
A|--0------------------------------------------------------------------------|
E|--5------------------------------------------------------------------------|

Gtr 2. 

e|----------0-----0---------0-----0---------0-----0---8-----8----------------|
B|------6-------6-------6-------6-------6-------6-------6-----6---6----------|
G|--5h7---7---7-----5h7---7---7-----5h7---7---7-----7-----7-----7------------|
D|---------------------------------------------------------------------------|
A|---------------------------------------------------------------------------|
E|---------------------------------------------------------------------------|



Gtr. 1

        pm..    pm     pm... 
e|-----------0-----0---------0-----------------------------------------------|
B|-----------5-----5---------5-----------------------------------------------|
G|-----------5-----5---------5-----------------------------------------------|
D|--7--------7-----7---------7-----------------------------------------------|
A|--0----0---0---0-0----0-0--0-----------------------------------------------|
E|--0----0---0---0-0----0-0--0---Repeat--------------------------------------|



Verse 1 pt. 2:

Gtr. 1
               pm.....                      pm......
e|--0-0-0-0-0---------------------0-0-0-0-0-----------8-8-8-8----------------|
B|--5-5-5-5-5-----------8-8-8-8---5-5-5-5-5-----------6-6-6-6----------------|
G|--5-5-5-5-5-----------5-5-5-5---7-7-7-7-7-----------7-7-7-7----------------|
D|--7-7-7-7-7-----------7-7-7-7-x-0-0-0-0-0--0-0-0-0--0-0-0-0-x--------------|
A|--0-0-0-0-0--0-0-0-0--0-0-0-0-x-0-0-0-0-0--0-0-0-0--0-0-0-0-x--------------|
E|--0-0-0-0-0--0-0-0-0--0-0-0-0-x-5-5-5-5-5--5-5-5-5--5-5-5-5-x--------------|



               pm.....                      pm......
e|--0-0-0-0-0---------------------0-0-0-0-0-----------8-8-8-8-8-8-8----------|
B|--5-5-5-5-5-----------8-8-8-8---5-5-5-5-5-----------6-6-6-6-6-6-6----------|
G|--5-5-5-5-5-----------5-5-5-5---7-7-7-7-7-----------7-7-7-7-7-7-7----------|
D|--7-7-7-7-7-----------7-7-7-7-x-0-0-0-0-0--0-0-0-0--0-0-0-0-0-0-0----------|
A|--0-0-0-0-0--0-0-0-0--0-0-0-0-x-0-0-0-0-0--0-0-0-0--0-0-0-0-0-0-0----------|
E|--0-0-0-0-0--0-0-0-0--0-0-0-0-x-5-5-5-5-5--5-5-5-5--5-5-5-5-5-5-5----------|




               pm.....                      pm......
e|--0-0-0-0-0---------------------0-0-0-0-0-----------8-8-8-8----------------|
B|--5-5-5-5-5-----------8-8-8-8---5-5-5-5-5-----------6-6-6-6----------------|
G|--5-5-5-5-5-----------5-5-5-5---7-7-7-7-7-----------7-7-7-7----------------|
D|--7-7-7-7-7-----------7-7-7-7-x-0-0-0-0-0--0-0-0-0--0-0-0-0-x--------------|
A|--0-0-0-0-0--0-0-0-0--0-0-0-0-x-0-0-0-0-0--0-0-0-0--0-0-0-0-x--------------|
E|--0-0-0-0-0--0-0-0-0--0-0-0-0-x-5-5-5-5-5--5-5-5-5--5-5-5-5-x--------------|



               pm.....                      pm......
e|--0-0-0-0-0---------------------0-0-0-0-0-----------8-8-8-8-8-8-8----------|
B|--5-5-5-5-5-----------8-8-8-8---5-5-5-5-5-----------6-6-6-6-6-6-6----------|
G|--5-5-5-5-5-----------5-5-5-5---7-7-7-7-7-----------7-7-7-7-7-7-7----------|
D|--7-7-7-7-7-----------7-7-7-7-x-0-0-0-0-0--0-0-0-0--0-0-0-0-0-0-0----------|
A|--0-0-0-0-0--0-0-0-0--0-0-0-0-x-0-0-0-0-0--0-0-0-0--0-0-0-0-0-0-0----------|
E|--0-0-0-0-0--0-0-0-0--0-0-0-0-x-5-5-5-5-5--5-5-5-5--5-5-5-5-5-5-5----------|




Verse 2 pt. 1:

Gtr 1.

e|---------------------------------------------------------------------------|
B|---------------------------------------------------------------------------|
G|--7------------------------------------------------------------------------|
D|--0------------------------------------------------------------------------|
A|--0------------------------------------------------------------------------|
E|--5------------------------------------------------------------------------|

Gtr. 2

e|------------------------------------------------------8------8-------------|
B|------------------------------------------5-5-6-6-/10---10-----10---10-----|
G|----------------------------------7-7-7-7------------------9------9--------|
D|------0-0-0-0-0-0-2-2-2-2-3-3-3-3------------------------------------------|
A|--0h3----------------------------------------------------------------------|
E|---------------------------------------------------------------------------|




Gtr. 1

e|--0------------------------------------------------------------------------|
B|--1------------------------------------------------------------------------|
G|--2------------------------------------------------------------------------|
D|--2------------------------------------------------------------------------|
A|--0------------------------------------------------------------------------|
E|--0-0-0-0-0--0-0-0-0-0--0-0-0-0-0--0-0-0-0-0-------------------------------|

Gtr. 2

e|---------------------------------------------------------------------------|
B|----------8---------7---------6---------5----------------------------------|
G|--------5---------5---------5---------5------------------------------------|
D|--7p5h7-----7p5h7-----7p5h7-----7p5h7--------------------------------------|
A|---------------------------------------------------------------------------|
E|---------------------------------------------------------------------------|




Gtr 1.

e|---------------------------------------------------------------------------|
B|---------------------------------------------------------------------------|
G|--7------------------------------------------------------------------------|
D|--0------------------------------------------------------------------------|
A|--0------------------------------------------------------------------------|
E|--5------------------------------------------------------------------------|

Gtr. 2

e|------------------------------------------------------8------8-------------|
B|------------------------------------------5-5-6-6-/10---10-----10---10-----|
G|----------------------------------7-7-7-7------------------9------9--------|
D|------0-0-0-0-0-0-2-2-2-2-3-3-3-3------------------------------------------|
A|--0h3----------------------------------------------------------------------|
E|---------------------------------------------------------------------------|

          let ring........(hold out feedback)
e|---------------------------------------------------------------------------|
B|---------------------------------------------------------------------------|
G|--5h7p5--------------------------------------------------------------------|
D|--------5h7~~~~~~~~~~~~~~~~~~~~~~~~~~~~~~~~~~~~~~~~~~----------------------|
A|---------------------------------------------------------------------------|
E|---------------------------------------------------------------------------|



Interlude:

Gtr. 1

e|---------------------------------------------------------------------------|
B|---------------5---6-5--------------------6---6-5--------------------------|
G|-----------------------5-4-5-7--------------------5-4-5-7------------------|
D|---------7--7------------------5--3--3--3----------------------------------|
A|---------------------------------------------------------------------------|
E|---------------------------------------------------------------------------|


e|---------------------------------------------------------------------------|
B|-------5---6-5----------------6-----------------------5---6-5--------------|
G|---------------5-4-5-7---------------5h7p5--------------------5-4-5-7------|
D|--7--7-----------------5-3--3-----5h7-----7p5h7-7---7-----------------5----|
A|---------------------------------------------------------------------------|
E|---------------------------------------------------------------------------|


e|---------------------------------------------------------------------------|
B|-------6---6-5---------------5---6-5----------------6----------------------|
G|---------------5-4-5-7---------------5-4-5-7--------------0h2p5-2--0-5-2---|
D|--3--3------------------7--7-----------------5-3--3----0h2--------2--------|
A|---------------------------------------------------------------------------|
E|---------------------------------------------------------------------------|




Verse 3 pt. 1:

Gtr. 1

e|--------0------------------------------------------------------------------|
B|--------5-----------------------6------------------------------------------|
G|--------5-----------------7--7--7------------------------------------------|
D|--7--7--7-----------------0--0--9------------------------------------------|
A|--0--0--0-----------------0--0--0------------------------------------------|
E|--0--0--0-----------------5--5---------------------------------------------|



                                              [Gtr. 1 & 2]

e|--------0---------------------------------------10p8-----------------------|
B|--------5-----------------------6-----------/10------10--------------------|
G|--------5-----------------7--7--7------------------------------------------|
D|--7--7--7-----------------0--0--9------------------------------------------|
A|--0--0--0-----------------0--0--0------------------------------------------|
E|--0--0--0-----------------5--5---------------------------------------------|



e|--------0------------------------------------------------------------------|
B|--------5-----------------------6------------------------------------------|
G|--------5-----------------7--7--7------------------------------------------|
D|--7--7--7-----------------0--0--9------------------------------------------|
A|--0--0--0-----------------0--0--0------------------------------------------|
E|--0--0--0-----------------5--5---------------------------------------------|

                                              [Gtr. 1 & 2]

e|--------0---------------------------------------10p8-----------------------|
B|-------(8)-(8)(5)---------------6-----------/10------10--------------------|
G|--------5-------(7)(5)(7)-7--7--7------------------------------------------|
D|--7--7--7-----------------0--0--9------------------------------------------|
A|--0--0--0-----------------0--0--0------------------------------------------|
E|--0--0--0-----------------5--5---------------------------------------------|



[No instruments, gang vox, foot stomps/claps? and snare roll]




Verse 3 pt. 2

Gtr. 1
               pm.....                      pm......
e|--0-0-0-0-0---------------------0-0-0-0-0-----------8-8-8-8----------------|
B|--5-5-5-5-5-----------8-8-8-8---5-5-5-5-5-----------6-6-6-6----------------|
G|--5-5-5-5-5-----------5-5-5-5---7-7-7-7-7-----------7-7-7-7----------------|
D|--7-7-7-7-7-----------7-7-7-7-x-0-0-0-0-0--0-0-0-0--0-0-0-0-x--------------|
A|--0-0-0-0-0--0-0-0-0--0-0-0-0-x-0-0-0-0-0--0-0-0-0--0-0-0-0-x--------------|
E|--0-0-0-0-0--0-0-0-0--0-0-0-0-x-5-5-5-5-5--5-5-5-5--5-5-5-5-x--------------|



               pm.....                      pm......
e|--0-0-0-0-0---------------------0-0-0-0-0-----------8-8-8-8-8-8-8----------|
B|--5-5-5-5-5-----------8-8-8-8---5-5-5-5-5-----------6-6-6-6-6-6-6----------|
G|--5-5-5-5-5-----------5-5-5-5---7-7-7-7-7-----------7-7-7-7-7-7-7----------|
D|--7-7-7-7-7-----------7-7-7-7-x-0-0-0-0-0--0-0-0-0--0-0-0-0-0-0-0----------|
A|--0-0-0-0-0--0-0-0-0--0-0-0-0-x-0-0-0-0-0--0-0-0-0--0-0-0-0-0-0-0----------|
E|--0-0-0-0-0--0-0-0-0--0-0-0-0-x-5-5-5-5-5--5-5-5-5--5-5-5-5-5-5-5----------|



               pm.....                      pm......
e|--0-0-0-0-0---------------------0-0-0-0-0-----------8-8-8-8----------------|
B|--5-5-5-5-5-----------8-8-8-8---5-5-5-5-5-----------6-6-6-6----------------|
G|--5-5-5-5-5-----------5-5-5-5---7-7-7-7-7-----------7-7-7-7----------------|
D|--7-7-7-7-7-----------7-7-7-7-x-0-0-0-0-0--0-0-0-0--0-0-0-0-x--------------|
A|--0-0-0-0-0--0-0-0-0--0-0-0-0-x-0-0-0-0-0--0-0-0-0--0-0-0-0-x--------------|
E|--0-0-0-0-0--0-0-0-0--0-0-0-0-x-5-5-5-5-5--5-5-5-5--5-5-5-5-x--------------|



               pm.....                      pm......
e|--0-0-0-0-0---------------------0-0-0-0-0-----------8-8-8-8-8-8-8----------|
B|--5-5-5-5-5-----------8-8-8-8---5-5-5-5-5-----------6-6-6-6-6-6-6----------|
G|--5-5-5-5-5-----------5-5-5-5---7-7-7-7-7-----------7-7-7-7-7-7-7----------|
D|--7-7-7-7-7-----------7-7-7-7-x-0-0-0-0-0--0-0-0-0--0-0-0-0-0-0-0----------|
A|--0-0-0-0-0--0-0-0-0--0-0-0-0-x-0-0-0-0-0--0-0-0-0--0-0-0-0-0-0-0----------|
E|--0-0-0-0-0--0-0-0-0--0-0-0-0-x-5-5-5-5-5--5-5-5-5--5-5-5-5-5-5-5----------|



Outro/Breakdown:

Gtr. 1

e|--0------------------------------------------------------------------------|
B|--1------------------------------------------------------------------------|
G|--2------------------------------------------------------------------------|
D|--2------------------------------------------------------------------------|
A|--0------------------------------------------------------------------------|
E|--0-0-0-0-0--0-0-0-0-0--0-0-0-0-0--0-0-0-0-0--0-0-0-0-0--0-0-0-0-0---------|




Gtr. 1

e|------------------------0--------------------------------------------------|
B|------------------------1--------------------------------------------------|
G|------------------------2--------------------------------------------------|
D|------------------------2--------------------------------------------------|
A|------------------------0--------------------------------------------------|
E|--0-0-0-0-0--0-0-0-0-0--0-0-0-0-0--0-0-0-0-0--0-0-0-0-0--0-0-0-0-0---------|

Gtr. 2

e|---------------------------------------------------------------------------|
B|---------------------------------8---------7---------6---------5-----------|
G|------------------------------5---------5---------5---------5--------------|
D|------------------------7p5h7-----7p5h7-----7p5h7-----7p5h7----------------|
A|---------------------------------------------------------------------------|
E|---------------------------------------------------------------------------|





Gtr. 1

e|----------------------------------------------0----------------------------|
B|----------------------------------------------1----------------------------|
G|----------------------------------------------2----------------------------|
D|----------------------------------------------2----------------------------|
A|----------------------------------------------0----------------------------|
E|--0-0-0-0-0--0-0-0-0-0--0-0-0-0-0--0-0-0-0-0--0-0-0-0-0--0-0-0-0-0---------|

Gtr. 2

e|---------------------------------------------------------------------------|
B|---------8---------7---------6---------5--------------8---------5----------|
G|-------5---------5---------5---------5--------------5---------5------------|
D|-7p5h7-----7p5h7-----7p5h7-----7p5h7----------7p5h7-----7p5h7--------------|
A|---------------------------------------------------------------------------|
E|---------------------------------------------------------------------------|




Gtr. 1

e|---------------------------------------------------------------------------|
B|---------------------------------------------------------------------------|
G|---------------------------------------------------------------------------|
D|---------------------------------------------------------------------------|
A|---------------------------------------------------------------------------|
E|--0-0-0-0-0--0-0-0-0-0--0-0-0-0-0--0-0-0-0-0--0-0-0-0-0--0-0-0-0-0---------|

Gtr. 2

e|---------------------------------------------------------------------------|
B|----------8---------5-----------8----------5----------8----------5---------|
G|--------5---------5----------5-----------5----------5----------5-----------|
D|--7p5h7-----7p5h7------7p5h7-------7p5h7------7p5h7------7p5h7-------------|
A|---------------------------------------------------------------------------|
E|---------------------------------------------------------------------------|



************************************

| /   slide up
| \   slide down
| h   hammer-on
| p   pull-off
| ~   vibrato
| +   harmonic
| x   Mute note
| b   Bend
| pb  Pre-bend
| br  Bend release
| pbr Pre-bend release
| brb Bend release bend

************************************
Tap to rate this tab
# A B C D E F G H I J K L M N O P Q R S T U V W X Y Z