Song name
# A B C D E F G H I J K L M N O P Q R S T U V W X Y Z

Thrice - So Strange I Remember You tab

I passed a lot of hours on this one and i'm pretty sure this is the way tepei's play it. 
This tab is 100% correct at my opinion. I did not put any effects because i presumed 
that you guys can figure this out. Enjoy it





D#|------------------------------------------------------------------------|
A#|----------------------------------------------------------10------------|
F#|------------6---6-7-6---------------6---6-7-6---6-7-9-6-7----9-6-7-6----|
C#|----------7---7-------7-----------7---7-------7----------------------7--|
G#|------7-9---------------------7-9---------------------------------------|
C#|--0---------------------------0-----------------------------------------|


D#|------------------------------------------------------------------------|
A#|------------------------------------------------------------------------|
F#|------------------------------------------------------------------------|
C#|--6-6-7-6-4-6------6-----4-----4-4-6-4---------6-----7-----7-7-9-7-6----|
G#|-----------------0-----0-----0---------5-7---4-----4-----4--------------|
C#|---------------0-----0-----0---------------4-----4-----4----------------|


D#|------------------------------------------------------------------------|
A#|------------------------------------------------------------------------|
F#|------------------------------------------------------------------------|
C#|------6-----4------7--------------7------9-----9-9-11-9-7-9-------------|
G#|----0-----0------9---9-7-5------4---4------7----------------------------|
C#|--0-----0---------------------4-------4---------------------------------|


D#|-------------------10---------------------------------------------------|
A#|-----------------3-10---------------------------------------------------|
F#|----------------------11-9----------------4----4-4-6-4------------------|
C#|------6-----4--------------12-------7-------6---------------------------|
G#|----0-----0-----------------------4---4---------------------------------|
C#|--0-----0-----------------------4-------4-------------------------------|


D#|------------------------------------------------------------------------|
A#|------------------------------------------------------------------------|
F#|------------------------------------------------------------------------|
C#|----------12-----11-----11-11-12-11-9-11--------------------------------|
G#|--------9----9------9---------------------0-----------------------------|
C#|--4---9--------9------9-------------------0-----------------------------|
Tap to rate this tab
 
# A B C D E F G H I J K L M N O P Q R S T U V W X Y Z