Song name
# A B C D E F G H I J K L M N O P Q R S T U V W X Y Z

Thrice - For Miles tab

-------------------------------------------------------------------------------
			     For Miles - Thrice   
-------------------------------------------------------------------------------
Tabbed by: Jason Paszek (Autopoietic Boy)
Email: J.W.Paszek.Guitar.Instruction@gmail.com

This is the piano intro transcribed for guitar.  I did it by ear so if any
mistakes or missing notes are noticed please let me know.  I added chord
accompaniments, but the chord quality changes so quickly I couldn't write
each and every chord change.  This is definintely not a beginner or novice
piece of music to play for guitar. It should come easier to anyone with a
background in classical guitar or complex finger picking styles. Definitely
an intermediate/advanced finger picking song.  Sounds awesome on guitar though.



Tuning: EADGBe

 
  E      E#5th       E     E#5th     E      E#5th
e|------------0----------------0---------------0-----------------------------|
B|-------0----------------0----------------0------------0---0---0------------|
G|-----1---5-----5------1---5-----5------1---5---5----5---5---1--------------|
D|---------------------------------------------------------------------------|
A|---------------------------------------------------------------------------|
E|--0----------------0----------------0--------------------------------------|



   Dm7            Dm/F        Dm/A           E#5th Esus4 E
e|---------0------------0----------------------------------------------------|
B|-----0-----6------0-----6---------0---3-----0---0-------0------------------|
G|-------5-----5------5-----5---------5---5-----5----2--1--------------------|
D|--3-------------3--------------3-------------------------------------------|
A|--5--------------------------0---------------------2-----------------------|
E|--------------------------------------------4------------------------------|



   E   E#5th E  E#5th   E    E#5th    Am+9  Am     Cmaj7    E
e|--------------------0----------0-------------------------------------------|
B|------0--------0-----------0-------------0---3--------1-----1--------------|
G|----1---5----1---5-------1---5---5-----2---5---5----4---4-2----------------|
D|--2--------2--------------------------------------2------------------------|
A|-----------------------2-------------0------------3------------------------|
E|-----------4---------------------------------------------------------------|



   Ddim           E  E#5th    Dm7+9         
e|----------1-------------0------------0-------------------------------------|
B|------0-3---3-------0------------0---------3--1--0-------------------------|
G|----1-------------1---5---5--------5---5---4--2--1-------------------------|
D|--3----------------------------3-------------------------------------------|
A|--5-------------2------------5---------------------------------------------|
E|---------------------------------------------------------------------------|


************************************

| /   slide up
| \   slide down
| h   hammer-on
| p   pull-off
| ~   vibrato
| +   harmonic
| x   Mute note
| b   Bend
| pb  Pre-bend
| br  Bend release
| pbr Pre-bend release
| brb Bend release bend

************************************
Tap to rate this tab
# A B C D E F G H I J K L M N O P Q R S T U V W X Y Z