Song name
# A B C D E F G H I J K L M N O P Q R S T U V W X Y Z

Thrice - Words In The Water tab

Thrice - words in the water : guitar tab (teppei/leads)

intro

tuning d standard with capo on 1st fret.

            TEPPEI

D/-----------------------------------|
A/-----------------------------------|
F/-----------------------------------|
C/---3-----3----3----0-----0---------|
G/-0--------------------4------------|
D/------4----2----2------------------|

D/------------------------------------|
A/------------------------------------|
F/------------------------------------|
C/---3-----3-----3b-------4---0-----0-|
G/-0-----------------4-----------4----|
D/------4-----4---------2---2---------|......

repeat this til the chorus.

            DUSTIN

D/--------------------------------------------------------|
A/--------------------------------------------------------|
F/---6--------------------8--------10-(strum)---------6---|
C/---8(strum then slide)\10(strum)-11-(then back to)--8---|
G/--------------------------------------------------------|
D/--------------------------------------------------------|



	     BACK TO TEPPEI CHORUS.


D/-----9-----9------9------9-----8----8-------------13------13---6----6-------|
A/--------------------------------------slide----------------------0---0------|
F/--10----10----10-----10-----8-----8-----------13------13------6--------6----|
C/----------------------------------------------------------------------------|
G/----------------------------------------------------------------------------|
D/----------------------------------------------------------------------------|
                                                                ^^repeat this
                                                                   4 times
                                                                     let it
ring.



    @ (2:44) the song is the same as above just listen to the song. Dustin plays the
             chords under teppei.


this is pretty much the whole song.

except after the bass chords


teppei changes the first 2 riffs.
just listen to the song/changes its the same notes as the first intro riff.


The ontro right at the end @ around 1:00 teppei just strums notes he plays in the chorus.
     like this
    V V V V V V

D/---9---8---13---6--|
A/---x---x----x---0--|
F/--10---8---13---6--|
C/-------------------|
G/-------------------|
D/-------------------|


dustin plays some basic chords right before the song ends i dont know as i focus on the
leads but they shouldnt be to hard.
Tap to rate this tab
# A B C D E F G H I J K L M N O P Q R S T U V W X Y Z