Song name
# A B C D E F G H I J K L M N O P Q R S T U V W X Y Z

Thrice - Moving Mountains tab

I've seen a few tabs around but none of them have been 100% correct so here's my attempt.
I'm pretty sure this is all accurate except for maybe the fingerpicking on the E chord.
That being said, I welcome any feedback and improvements. Thanks.


Am
|-------------------------------------------|
|-------1p0---0--------------8---8----------|
|---2---2-------2--------9---9--(9)9--------|
|---2-------------2------7-----------7------|
|-0---0-----0----------0---0---0------------|
|-------------------------------------------|

F
|-------------------------------------------|
|----1-----3p1---1--------------------------|
|----2-----2------2-------------------------|
|--3-----3-----3---3------------------------|
|-------------------------------------------|
|-------------------------------------------|

Dm
|---------1p0---0---------------------------|
|----3----3------3--------------------------|
|----2------------2-------------------------|
|--0----0-----0-----------------------------|
|-------------------------------------------|
|-------------------------------------------|

Dm Transition
|-------------------------------------------|
|----3-------1----1-------------------------|
|----2-------0----0-------------------------|
|--0----0-----------------------------------|
|----------3----2---------------------------|
|-------------------------------------------|

E
|-------------0-------------------------------|
|--------3------------------------------------|
|----1---1-----1------------------------------|
|----2----------2-----------------------------|
|---------------------------------------------|
|--0---0----0---------------------------------|

E Transition
|-------------0-----------------------------|
|--------3------------------1---1-----------|
|----1---1-----1------1-----0---0-----------|
|----2----------2-----2---------------------|
|--------------------------3---2------------|
|--0---0----0-------0---0-------------------|


Intro: Am Am

Am
I speak in many tongues to many men;
Am
Argue with angels and I always win,
F                Dm Transition
But I don't know the first thing about love.

Am
I prophesy and know all mysteries;
Am
All hidden things are opened up to me
F               Dm
But I don't know the first thing about love
F               E Transition
But I don't know the first thing about love

Am
I have the keys to open any door;
Am
I give all of my possessions to the poor,
F               Dm Transition
But I don't know the first thing about love

Am
And moving mountains ain't nothing to me;
Am
I've faith enough to cast them to the sea,
F              Dm
But I don't know the first thing about love
F              E            E
But I don't know the first thing about love

F     Dm    Am
But all other things shall fade away;
F     Dm   Am
While love stands alone and still holds sway
F     E      Dm    Dm
All other things shall fade away;
E Transition        Am    Am
Into the ground into the grey.

(Now just strum chords. Listen to the recording to get the pattern)
Am
I give my body up unto the flames;
Am
And never once have I denied your name
F      Dm
But I don't know the first thing about love.
F      Dm
I don't know the first thing about love.
F      E
I don't know the first thing about love.

End with:
|-------------0-----------------------------|
|-----1---1---1-----------------------------|
|-----0---0---2-----------------------------|
|-------------2-----------------------------|
|---3---2-----0-----------------------------|
|-------------------------------------------|
Tap to rate this tab
# A B C D E F G H I J K L M N O P Q R S T U V W X Y Z