Song name
# A B C D E F G H I J K L M N O P Q R S T U V W X Y Z

Thrice - Talking Through Glass tab

Song   - Talking Through Glass / We Move Like Swing Sets
Artist - Thrice
Album  - Beggars
Tuning - D Tuning: D-G-C-F-A-d (both guitars)


Verse:

Guitar 1:

|------------------------------------------------------------------|
|------------------------------------------------------------------|
|-0-0-0-0-0-0-0---0-0-0-----------0-0-0-0-0-0-0---0-0-0-0---0-0----|
|-2-2-2/5-5-5-7\--2-2-2-4-0-0-----2-2-2/5-5-5-7\--2-2-2-2/9-9-9\---|
|-----------------------------2-0----------------------------------|
|------------------------------------------------------------------|

Guitar 2: Switch between Guitar 1's part and this:

|-----7-------7-------7-------7-------7-------7-------7-------7----|
|-----8-------8-------8-------8-------8-------8-------8-------8----|
|-9-9-9---9-9-9---9-9-9---9-9-9---9-9-9---9-9-9---9-9-9---9-9-9----|
|-9-9-----9-9-----9-9-----9-9-----9-9-----9-9-----9-9-----9-9------|
|------------------------------------------------------------------|
|------------------------------------------------------------------|
PM...     ...     ...     ...     ...     ...     ...     ...


Chorus:

Guitar 1:

|---------------------------------------------------------------------|
|---------------------------------------------------------------------|
|---------------------------------------------------------------------|
|-10-10-10-9-9-9-7-7-9-9-9-7-7-7-5-5-4-4-4-4-4-4-4-4-5-4-4-5~----7/---|
|---------------------------------------------------------------------|
|---------------------------------------------------------------------|

|---------------------------------------------------------------------|
|---------------------------------------------------------------------|
|---------------------------------------------------------------------|
|-10-10-10-9-9-9-7-7-9-9-9-7-7-7-5-5-7-7-7-7-7-7-7\--4-4-4-4-4-4-4/---|
|---------------------------------------------------------------------|
|---------------------------------------------------------------------|

|---------------------------------------------------------------------|
|---------------------------------------------------------------------|
|---------------------------------------------------------------------|
|-10-10-10-9-9-9-7-7-9-9-9-7-7-7-5-5-4-4-4-4-4-4-4-4-5-4-4-5~----7/---|
|---------------------------------------------------------------------|
|---------------------------------------------------------------------|
                                     ^ 4s are 7s 2nd chorus

|---------------------------------------------------------------------|
|---------------------------------------------------------------------|
|---------------------------------------------------------------------|
|-10-10-10-9-9-9-7-7-9-9-9-7-7-7-5-5-7-7-7-7-7-7-7-7-9-9-9-9-9-9-9----|
|---------------------------------------------------------------------|
|---------------------------------------------------------------------|
                                     ^ 7s & 9s are 4s and 7s in 2nd chorus 

Guitar 2:

|-12-12-12-12-12-12-12/--7-7-7-7-7-7-7/--10-10-10-10-10-10-10-10-10-10-10-10-10-10-10/12--|
|-12-12-12-12-12-12-12/--5-5-5-5-5-5-5/--10-10-10-10-10-10-10-10-10-10-10-10-10-10-10/12--|
|-----------------------------------------------------------------------------------------|
|-----------------------------------------------------------------------------------------|
|-----------------------------------------------------------------------------------------|
|-----------------------------------------------------------------------------------------|

|-12-12-12-12-12-12-12/--7-7-7-7-7-7-7/--10-10-10-10-10-10-10-10-10-10-10-10-10-10-10-10/-|
|-12-12-12-12-12-12-12/--5-5-5-5-5-5-5/--10-10-10-10-10-10-10-10--7--7--7--7--7--7--7--7/-|
|-----------------------------------------------------------------------------------------|
|-----------------------------------------------------------------------------------------|
|-----------------------------------------------------------------------------------------|
|-----------------------------------------------------------------------------------------|


Bridge:

Guitar 1:

|----------------------------------------------------------------------------------|
|----------------------------------------------------------------------------------|
|-10-10-10-10-10-10-10-10-10-10-10-10-10-10-10-10-9-9-9-9-9-9-9-9-9-9-9-9-9-9-9-9--|
|--7--7--7--7--7--7--7--7--7--7--7--7--7--7--7--7-7-7-7-7-7-7-7-7-7-7-7-7-7-7-7-7--|
|----------------------------------------------------------------------------------|
|----------------------------------------------------------------------------------|

|--------------------------------------------------------------------------------------------|
|--------------------------------------------------------------------------------------------|
|-10-10-10-10-10-10-10-10-10-10-10-10-10-10-10-10-9-9-9-9-9-9-12-12-12-12-12-12-14-14-14-14--|
|--7--7--7--7--7--7--7--7--7--7--7--7--7--7--7--7-7-7-7-7-7-7-10-10-10-10-10-10-12-12-12-12--|
|--------------------------------------------------------------------------------------------|
|--------------------------------------------------------------------------------------------|

Guitar 2:

Repeat once:
|-10-10-10-10-10-10-10-10-8-8-8-8-8-8-8-0-10-10-10-10-10-10-10-10-8--8--8--8--8--8--8--0--|
|--6--6--6--6--6--6--6--6-6-6-6-6-6-6-6---10-10-10-10-10-10-10-10-10-10-10-10-10-10-10----|
|-----------------------------------------------------------------------------------------|
|-----------------------------------------------------------------------------------------|
|-----------------------------------------------------------------------------------------|
|-----------------------------------------------------------------------------------------|

|-10-10-10-10-10-10-10-10-8-8-8-8-8-8-8-0-10-10-10-10-10-10-10-12-12-12-12-12-12-12-12-12--|
|--6--6--6--6--6--6--6--6-6-6-6-6-6-6-6---10-10-10-10-10-10-10-10-10-10-10-10-10-10-10-10--|
|------------------------------------------------------------------------------------------|
|------------------------------------------------------------------------------------------|
|------------------------------------------------------------------------------------------|
|------------------------------------------------------------------------------------------|

Repeat once:
|-10-10-10-10-----10-8--8--8------8--8--8--8--10-10-10-10-----10--8--8--8------8--8--8--8-|
|-10-10-10-10-----10-10-10-10-----10-10-10-10-10-10-10-10-----10-10-10-10-----10-10-10-10-|
|-----------------------------------------------------------------------------------------|
|-----------------------------------------------------------------------------------------|
|-----------------------------------------------------------------------------------------|
|-----------------------------------------------------------------------------------------|

|-10-10-10-10-----10-8--8--8------8--8--8--8--10-10-10-10-----10--8--8--8------8--8--8--8-|
|-10-10-10-10-----10-10-10-10-----10-10-10-10-10-10-10-10-----10-10-10-10-----10-10-10-10-|
|-----------------------------------------------------------------------------------------|
|-----------------------------------------------------------------------------------------|
|-----------------------------------------------------------------------------------------|
|-----------------------------------------------------------------------------------------|

End on:

Guitar 1:
|--------|   |-8------|
|--------|   |-6------|
|--------|   |--------|
|-3------|   |--------|
|-3------|   |--------|
|-1------|   |--------|


We Move Like Swing Sets:

Guitar 1:

|--------------------------------------------------|
|-1-0----------------------------------------------|
|-----2-----2-------2-----------2-----------2------|
|-------2---0-------0-----------0-----------0------|
|-0------------------------------------------------|
|---------0---2---2---2p0-1---1---1---1---1---1----|

Guitar 2: (Very lightly)

|----------------------------------------------------------------|
|-13p12----12----------------------------------------------------|
|-------14----14-------------14-------------14-------------14----|
|----------------------------------------------------------------|
|------------------15---15--------15---15--------15---15---------|
|----------------------------------------------------------------|
Tap to rate this tab
 
# A B C D E F G H I J K L M N O P Q R S T U V W X Y Z