Song name
# A B C D E F G H I J K L M N O P Q R S T U V W X Y Z

Thrice - Daedalus tab

Daedalus - Thrice

This is only for rhythm guitar.


e|--------------------------------------|
B|-------5------5-------5------6-5-5----|
G|------5-5---5--------5-5---5----5-----|
D|-----7---7-7-7-7-7--7---7-7-7---------|
A|----0-----0-----0--0-----0------------|
E|--------------------------------------|

e|---------------------------0-0-----|
B|-------6------6------6------6------|
G|------5-5----5-5----5-5-------5----|
D|-----7---7--7---7--7---7--7--------|
A|----5------5------5------5---------|
E|-----------------------------------|

e|---------------------------------|
B|-------0------0------0------0----|
G|------5-5----5-5----5-5----5-----|
D|-----7---7--7---7--5---5--5------|
A|----8------8---------------------|
E|------------------3------3-------|

Repeat
End the second round with

e|------------------------------0----|
B|------2-3-2----2-3-2--2-3-2---2----|
G|-----2-----2--2------2-----2--2----|
D|------------------------------2----|
A|----0--------0------0---------0----|
E|-----------------------------------|

e|----5~----0~----8~--[8/10]--7~--------|   Repeat
B|----5~----0~----6~----------6~--------|   On repeat, play the [8/10]
G|----5~----5~----7~----------7~--------|
D|----7~----7~----0~----------0~--------|
A|--------------------------------------|
E|--------------------------------------|

e|----0---0-0---0/----0----0--0\-----|----1---1-1---1/----13---13-13---13\-|
B|----1---1-1---1/----13---13-13\----|----3---3-3---3/----15---15-15---15\-|
G|----2---2-2---2/----14---14-14\----|----2---2-2---2/----14---14-14---14\-|
D|----2---2-2---2/----14---14-14\----|----0---0-0---0/----0----0--0----0\--|
A|----0---0-0---0/----0----0--0\-----|-------------------------------------|
E|-----------------------------------|-------------------------------------|

^ Repeat
You can figure out the strumming pattern below, it's quite simple.

e|----0----0----0--------------0----0----0----0----|
B|----0----1----1--------------0----0----0----0----|
G|----2----2----0--------------4----2----2----1----|
D|----3----2----2--------------6----3----2----2----|
A|----3----0----3-3--/7--/5----5----3----2----2----|
E|----1------------------------0----1----0----0----|

Play Intro without repeat

e|----5~----0~----8~--[8/10]--7~----|
B|----5~----0~----6~----------6~----|
G|----5~----5~----7~----------7~----|
D|----7~----7~----0~----------0~----|
A|----------------------------------|
E|----------------------------------|

e|----7--5----------------0----|
B|----5--5--8---7---6~----0----|  Make sure to do a up strum
G|----5--5--9---8---7~----1----|  for the last chord.
D|----7--7--10--10--9~----0----|
A|------------------------2----|
E|------------------------0----|

e|----0----0----0--------------0----0----0----0----[0]----|
B|----0----1----1--------------0----0----0----0----[1]----|
G|----2----2----0--------------6----2----2----1----[2]----|
D|----3----2----2--------------4----3----2----2----[2]----|
A|----3----0----3-3--/5--/7----5----3----2----2----[0]----|
E|----1------------------------0----1----0----0-----------|

^ Play twice through, on the second time play the Am at the end.
Let it ring.

e|----------------------------------------|
B|----------------------------------------|
G|----------------------------------------|
D|----------------------------------------|
A|----0~----------------0~----------------|
E|----------------------------------------|

e|----------------------------------------------|
B|----------------------------------------------|
G|----------------------------------------------|
D|----------------------------------------------|
A|----0----/8----5----0----0----/8----5----0----|
E|----------------------------------------------|

Strumming pattern yet again, simple. Figure it out yourselves.
Play until end of song.

e|----0----1----0----0----|
B|----0----3----1----1----|
G|----2----2----2----0----|
D|----3----0----2----2----|
A|----3---------0----3----|
E|----1-------------------|

End song on F.





Questions? Comment. 
Corrections? E-mail me at: luther_purcell@hotmail.com
Tap to rate this tab
# A B C D E F G H I J K L M N O P Q R S T U V W X Y Z