Song name
# A B C D E F G H I J K L M N O P Q R S T U V W X Y Z

Thrice - In Your Hands tab

Help us improve GuitareTab! Take a short survey!
Acoustic 2x
e|---------------------------------------------------------------------------|
B|---------------------------------------------------------------------------|
G|-----------12-----------12-----------9-----------9-------------------------|
D|--------10----10-----10----10-----10---10-----10---10----------------------|
A|------8----------8-8----------8-0---------0-0------------------------------|
E|---------------------------------------------------------------------------|

	*(1st guitar) Electric w/distortion 4x 
e|---------------------------------------------------------------------------|
B|---------------------------------------------------------------------------|
G|-----------12-----------12-----------9-----------9-------------------------|
D|--------10----10-----10----10-----10---10-----10---10----------------------|
A|------8----------8-8----------8-0---------0-0------------------------------|
E|---------------------------------------------------------------------------|
	
	*(2nd guitar) These are the chords, youll figure out the rhythm yourself.
e|---------------------------------------------------------------------------|
B|---------------------------------------------------------------------------|
G|------------------------------------10----9-----5-----4-----9-----7--------|
D|------3-----7-----3-----7-----------x-----x-----x-----x-----x-----x--------|
A|------3-----7-----3-----7-----------8-----7-----3-----2-----7-----5--------|
E|------1-----5-----1-----5--------------------------------------------------|
	
	(1st guitar) verse  4x
e|---------------------------------------------------------------------------|
B|---------------------------------------------------------------------------|
G|---------------------------------------------------------------------------|
D|----------12-----------12-----------9-----------9--------------------------|
A|------10------10---10------10---10-----10---10-----10----------------------|
E|---------------------------------------------------------------------------|
	Bound to this couch

	(2nd guitar) verse  4x
e|---------------------------------------------------------------------------|
B|-----palm mute----palm mute-----palm mute-----palm mute--------------------|
G|------/---\---------/---\---------/---\---------/---\----------------------|
D|------3-3-3---3-3---3-3-3---3-3---7-7-7---7-7---7-7-7---7-7----------------|
A|------3-3-3---3-3---3-3-3---3-3---7-7-7---7-7---7-7-7---7-7----------------|
E|------1-1-1---1-1---1-1-1---1-1---5-5-5---5-5---5-5-5---5-5----------------|

	I dont know the part after he says, have my cries fallen on deaf ears
But here is while he says or am I talking to myself again
	(1st guitar) Youll figure out the rhythm.
e|---------------------------------------------------------------------------|
B|---------------------------------------------------------------------------|
G|-----5---------7-----------------------------------------------------------|
D|-----5----7----7----3----5-------------------------------------------------|
A|-----3----7----5----3----5-------------------------------------------------|
E|----------5---------1----3-------------------------------------------------|

	(2nd guitar) again, figure out the simple rhythm, its easy, but it changes.
e|---------------------------------------------------------------------------|
B|---------------------------------------------------------------------------|
G|------9-10-12----7-7--10-9-7----9-10-12--9-10-12--7-10-9-10-7--------------|
D|------x-x--x-----x-x--x--x-x----x-x--x---x-x--x---x-x--x-x--x--------------|
A|------7-8--10----5-5--8--7-5----7-8--10--7-8--10--5-8--7-8--5--------------|
E|---------------------------------------------------------------------------|
	
Then it goes into another part I dont know I guess Ill leave it up to you
but heres the little thing while he says in your hands
	Fairly quick.
e|---------------------------------------------------------------------------|
B|---------------------------------------------------------------------------|
G|-----10-9-7----------------------------------------------------------------|
D|------------10-9-7---------------------------------------------------------|
A|-------------------10-8----------------------------------------------------|
E|---------------------------------------------------------------------------|

	Then play the beginning part with the *
	Then the solo.
e|------------------10h12--15-15-15-12-12h13-12----------15-15-15-12-12h13---|
B|------------10h12-----------------------------13-13-13---------------------|
G|------10h12----------------------------------------------------------------|
D|---------------------------------------------------------------------------|
A|---------------------------------------------------------------------------|
E|---------------------------------------------------------------------------|
						(2nd guitar)
e|------12----------13-12---------13-12------|-------------------------------|
B|---------13-------------13------------13---|-------------------------------|
G|------------14-14----------14--------------|--14-12---------14-12----------|
D|-------------------------------------------|---------15-12--------15-------|
A|-------------------------------------------|-------------------------------|
E|-------------------------------------------|-------------------------------|

	Toward the end 1st guitar| 2nd guitar youll figure out the rhythym.
e|-----------------------------|---------------------------------------------|
B|------just play with rhythm--|---------------------------------------------|
G|-----5-----------------------|--5---------7--------------------------------|
D|-----5-----------------------|--5----7----7----3----5----------------------|
A|-----3-----------------------|--3----7----5----3----5----------------------|
E|-----------------------------|-------5---------1----3----------------------|
Related for In Your Hands tab