Song name
# A B C D E F G H I J K L M N O P Q R S T U V W X Y Z

Thrice - Image Of The Invisible tab

Thrice
Image of the Invisible
Tuning: Drop D

I was getting kind of tired of some of the other tabs, so decided to do it myself. I am 
almost certain the chorus is how it should be and not like the other tabs, but feel free 
to let me know.

Intro and Verse- Guitar 1
/---------------------------------------|
/---------------------------------------|
/--12-----------8---------5-------------|
/---x-(x16)-----x-(x8)----x-(x8)--------|
/--10-----------6---------3-------------|
/---------------------------------------|

Verse- Guitar 2
/----------------------------------------|
/----------------------------------------|
/----------------------------------------|
/--5~------------------------------------|
/--5~------------------------------------|
/--5~------------------------------------|

Chorus- Guitar 1
/-----15---18p15-------20^22--18--17h18--17p15--------|
/--15------------15-----------------------------------|
/-------15----------15--------------------------------|
/-----------------------------------------------------|
/-----------------------------------------------------|
/-----------------------------------------------------|

Chorus- Guitar 2
/---------------------------------------|
/---------------------------------------|
/---------------------------------------|
/--1------------5---------3-------------|
/--1-(x16)------5-(x8)----3-(x8)--------|
/--1------------5---------3-------------|

Interlude- Guitar 1&2
/---------------------------------|
/---------------------------------|
/--3~-----5~-----7~-----7---------|
/--1~-----3~-----5~-----5---------| (this repeat twice and then speeds up to 10th notes)
/--1~-----3~-----5~-----5---------|
/--1~-----3~-----5~-----5---------|

Then end with this to go back to the verse
/------------------------------------------|
/--8---------------------------------------|
/--7---------------12----------------------|
/--5--(fades into)--x----------------------|
/--5---------------10----------------------|
/--5---------------------------------------|

Outro Chorus- Guitar 2 (Guitar 1 plays normal chorus)
/---------------------------------------------|
/---------------------------------------------|
/---------------------------------------------|
/--1--------3---------5--------8--------------|
/--1-(x8)---3-(x8)----5-(x8)---8--(x8)--------|
/--1--------3---------5--------8--------------|

Guitar 2 Outro
/------------------------------------------------------------|
/------------------------------------------------------------|
/------------------------------------------------------------|
/--1--1--1-------------(then does this to end)----1~---------|
/--1--1--1----------------------------------------1~---------|
/--1--1--1----------------------------------------1~---------|

/-------------------------------------------------------------|
/-------------------------------------------------------------|
/-------------------------------------------------------------|
/--7--8-8----7--8--5---(then does this to end)---(5)/0--1~----|
/-------------------------------------------------------------|
/-------------------------------------------------------------|
Tap to rate this tab
# A B C D E F G H I J K L M N O P Q R S T U V W X Y Z