Song name
# A B C D E F G H I J K L M N O P Q R S T U V W X Y Z

Thrice - Beggars Acoustic tab

Standard Tuning
Capo 2nd
Video for this version: http://www.youtube.com/watch?v=2f09EDaPAag&feature=related




Intro:    x2

|---0-----0---|
|---0-----1---|
|---0-----0---|
|---2-----2---|
|---2-----3---|
|---0---------|


Verse:    x3

|---0---0---|       |---2---2---0---0---0---2---0---|
|---0---1---|       |---3---0---0---2---1---0---0---|
|---0---0---|       |---2---2---0---0---0---2---0---|
|---2---2---|  x4   |---0---1---2---2---2---1---2---|
|---2---3---|       |-----------2---0---3---2---2---|
|---0-------|       |-----------0---------------0---|


Final Verse: ("Can you hear what's been said...")

|---0---2---0---0---0---2---0----|
|---1---0---0---2---1---0---0----|
|---2---2---0---0---0---2---0----|
|---2---1---2---2---2---1---2----|
|---0---2---2---0---3---2---2----|
|-----------0---------------0----|
Tap to rate this tab
# A B C D E F G H I J K L M N O P Q R S T U V W X Y Z