Song name
# A B C D E F G H I J K L M N O P Q R S T U V W X Y Z

Thrice - Moving Mountains tab

Guitar lesson on Moving Mountains below:

http://www.youtube.com/watch?v=If3m6EIzjSA





Chords


  Amin    Amin7sus4     Fmaj7    Dmin     Cmaj    Emaj     Emaj7

|--0----------0-----------0--------1-------0-------0---------0----|
|--1----------8-----------1--------3-------2-------0---------0----|
|--2----------9-----------2--------2-------0-------1---------1----|
|--2----------7-----------3--------0-------2-------2---------0----|
|--0----------0----------------------------3-------2---------2----|
|--------------------------------------------------0---------0----|



Structure


Intro     -    2x
Verse     -    2x
Chorus 1  -    1x
Intro     -    1x
Verse     -    2x
Chorus 2  -    1x
Intro     -    2x
Verse     -    2x
Chorus 1  -    1x
Verse     -    2x
Chorus 3  -    1x
Bridge 1  -    2x
Bridge 2  -    1x
Verse     -    2x
Outro




Intro/Verse

        Amin                      Amin7sus4

|---------------------------------------------------|
|-------1~0---0----------------------8---8----------|
|---2---2-------2----------------9---9-----9--------|
|---2---2---------2--------------7---7-------7------|
|-0---0-----0------------------0---0---0------------|
|---------------------------------------------------|





Chorus 1

         Fmaj7             Dmin        Cmaj

|-------------0-------------1------------------------|
|---1---3~1-----1-----------3-------------2-----(0)--|
|---2---2---------2---------2-------------0-----(1)--|
|-3---3-----3-------------0---------------2----------|
|----------------------------------0---3------2------|
|----------------------------------------------------|




Chorus 2

        Fmaj7                       Dmin

|-------------0---------------------1~0----0---------|
|---1---3~1-----1--------------3----3--------3-------|
|---2---2---------2------------2----2----------2-----|
|-3---3-----3---------------0----0------0------------|
|----------------------------------------------------|
|----------------------------------------------------|


        Fmaj7                       Emaj7                        Cmaj

|-------------0--------------------------0------------------------------------|
|---1---3~1-----1--------------0----3------3--------3--------------2----(0)---|
|---2---2---------2------------1----1--------1------1--------------0----(1)---|
|-3---3-----3------------------0----0---------------0--------------2----------|
|------------------------------------------------------------0---3----2-------|
|----------------------------0----0----0---------0----------------------------|





Chorus 3

        Fmaj7                       Dmin

|-------------0---------------------1~0----0---------|
|---1---3~1-----1--------------3----3--------3-------|
|---2---2---------2------------2----2----------2-----|
|-3---3-----3---------------0----0------0------------|
|----------------------------------------------------|
|----------------------------------------------------|


        Fmaj7                       Emaj7

|-------------0--------------------------0----------------0------------|
|---1---3~1-----1--------------0----3------3--------3----------3-------|
|---2---2---------2------------1----1--------1------1------------1-----|
|-3---3-----3------------------0----0---------------0--------------0---|
|----------------------------------------------------------------------|
|----------------------------0----0----0---------0------0----0---------|





Bridge 1


        Fmaj7                       Dmin

|-------------0---------------------1~0----0---------|
|---1---3~1-----1--------------3----3--------3-------|
|---2---2---------2------------2----2----------2-----|
|-3---3-----3---------------0----0------0------------|
|----------------------------------------------------|
|----------------------------------------------------|

        Amin                      Amin7sus4

|---------------------------------------------------|
|-------1~0---0----------------------8---8----------|
|---2---2-------2----------------9---9-----9--------|
|---2---2---------2--------------7---7-------7------|
|-0---0-----0------------------0---0---0------------|
|---------------------------------------------------|





Bridge 2


        Fmaj7                       Emaj

|-------------0------------------------------0-----------|
|---1---3~1-----1---------------0----3~0-------0---------|
|---2---2---------2-------------1----1-----------1-------|
|-3---3-----3-------------------2----2-------------------|
|--------------------------------------------------------|
|----------------------------0-----0------0--------------|


        Dmin                       Dmin

|---------1~0-----0-------------------1~0-----0----------|
|--3------3---------3----------3------3---------3--------|
|--2------2-----------2--------2------2-----------2------|
|0------0------0-------------0------0------0-------------|
|--------------------------------------------------------|
|--------------------------------------------------------|


       Emaj7

|-------------0----------------0-------------------------|
|---0----3------3--------3----------3--------------------|
|---1----1--------1------1------------1------------------|
|---0----0---------------0---------------0---------------|
|--------------------------------------------------------|
|-0----0----0---------0------0----0----------------------|
Tap to rate this tab
# A B C D E F G H I J K L M N O P Q R S T U V W X Y Z