Song name
# A B C D E F G H I J K L M N O P Q R S T U V W X Y Z

Thrice - A Living Dance Upon Dead Minds tab

intro
e-----------------------------------------------|
d-----------------------------------------------|
g----------------------11-11-11--13-14-13-11-13-|
d--11-11-11--14-14-14---------------------------|
a-----------------------------------------------|
e-----------------------------------------------|

e------------------------------------------------------|
d------------------------------------------------------|
g----------------------11-11-11--13-14-13-11-13-11-----|
d--11-11-11--14-14-14-------------------------------14-|
a------------------------------------------------------|
e------------------------------------------------------|
Tap to rate this tab
 
# A B C D E F G H I J K L M N O P Q R S T U V W X Y Z