Guitaretab - guitar tabs
Song name
# A B C D E F G H I J K L M N O P Q R S T U V W X Y Z

Thrice - Stare At The Sun tab

Song:   Stare At the Sun
Artist: Thrice
Album:  The Artist in the Ambulance
Tabbed by: phthalo9
Questions, comments? Email me at filteredsight@gmail.com

Standard Tuning

For intro and verses: choose which part to play since both are shown
on the same tab

Intro - Both guitar parts

e|-------3~~~-1~~~-----------3~~~-1~~~-------|
B|--4~~~-4~~~-x----4~~~-4~~~-4~~~-x----3/4~--|
G|--5~~~------3~~~-x----5~~~------3~~~-x-----|
D|-----------------6~~~----------------6~~~--|
A|-------------------------------------------|
E|-------------------------------------------|

1st Verse - Both Guitar parts

e|-------3~~~-1~~~----------3~~~-1~~~-------|
B|--4~~~-4~~~-x----4\3/4~~~-4~~~-x----3/4~--|
G|--5~~~------3~~~-x---5~~~------3~~~-x-----|
D|-----------------6~~~---------------6~~~--|
A|------------------------------------------|
E|------------------------------------------|

Chorus - Guitar 1

e|-------------------------------------|    
B|--4---3-4---4-----4---3---4-----3-4--|    
G|----5-----3---3-5---3---3---3-5------| x8 
D|-------------------------------------|    
A|-------------------------------------|    
E|-------------------------------------|    

Chorus - Guitar 2

e|--------------------------------------------------------------------|
B|--------------------------------------------------------------------|
G|--5----8----3---------5----8----3-----------------------------------|
D|--5----8----3----6----5----8----3----6----6----6----6---------------|
A|--3----6----1----6----3----6----1----6----6----6----6---------------|
E|-----------------4-------------------4----4----4----4---------------|

2nd Verse - Both Guitar parts

e|-|--1818~| 
B|-|----16--| 
   |        | 
e|-|--------|-3~~~-1~~~-----------3~~~-1~~~----------3~~~-1~~~------|
B|-|4~~~~~~-|-4~~~-x----3/4~-4~~~-4~~~-x----4\3/4~~~-4~~~-x----3/4~-|
G|-|5~~~~~~-|------3~~~-x----5~~~------3~~~-x---5~~~------3~~~-x----|
D|-|--------|-----------6~~~----------------6~~~---------------6~~~-|
A|-|--------|-------------------------------------------------------|
E|-|--------|-------------------------------------------------------|
[ Tab from: http://www.guitaretab.com/t/thrice/47667.html ]
NOTE: The Section isolated by |--| means that these are both played at 
the same time, obviously one part by one guitar, the other by another 
guitar, after which they join again to play the next piece continued 
after the |--|.

Chorus - Guitar 1

e|------------------------------------|    
B|--4---3-4---4-----4---3---4-----3---|    
G|----5-----3---3-5---3---3---3-5-----| x8 
D|------------------------------------|    
A|------------------------------------|    
E|------------------------------------|    

Chorus - Guitar 2

e|--------------------------------------------------------------------|
B|--------------------------------------------------------------------|
G|--5----8----3---------5----8----3-----------------------------------|
D|--5----8----3----6----5----8----3----6----6----6----6---------------|
A|--3----6----1----6----3----6----1----6----6----6----6---------------|
E|-----------------4-------------------4----4----4----4---------------|

Bridge: Guitar 1 - Double/Economy Picked

e|-------------------------------------------------8-------|
B|-4--6--8-------4--6--9-------4--6--8-------4--6----------|
G|----------5-5-----------5-5-----------5-5-----------5-5--|   x3
D|---------------------------------------------------------|
A|---------------------------------------------------------|
E|---------------------------------------------------------|

e|--15------13----------|
B|------13------16--11--|
G|----------------------|   x3
D|----------------------|
A|----------------------|
E|----------------------|

Bridge: Guitar 2

e|-------------------|
B|-------------------|
G|-------------------|   x3
D|-3----6----8----5--|
A|-3----6----6----3--|
E|-1----4----6----3--|

e|------------------------|
B|------------------------|
G|------------------------|
D|-3----6----6----6----6--|
A|-3----6----6----6----6--|
E|-1----4----4----4----4--|

Chorus - Guitar 1
e|------------------------------------|      
B|--4---3-4---4-----4---3---4-----3---|      
G|----5-----3---3-5---3---3---3-5-----| x12  (let last note ring)
D|------------------------------------|      
A|------------------------------------|      
E|------------------------------------|      

Chorus - Guitar 2
e|------------------------------------------|
B|------------------------------------------|
G|--5----8----3---------5----8----3---------| x2
D|--5----8----3----6----5----8----3----6----|
A|--3----6----1----6----3----6----1----6----|
E|-----------------4-------------------4----|

Yes, this is my first tab.
Related for Stare At The Sun tab