Song name
# A B C D E F G H I J K L M N O P Q R S T U V W X Y Z

Thrice - The Next Day tab

-------------------------------------------------------------------------------
			     The Next Day - Thrice
-------------------------------------------------------------------------------
Tabbed by: Steven
Email: lp1ckl3@yahoo.com

Tuning: standard

---------------0---------0-------|
---------------------------------|
-----7---7-----------7-----7-----|
---5---5---5-------5---5-----5---|
-7-----------7---7-------------7-|
---------------------------------|

---------------0---------0-------|
---------3-----------3-----3-----|
-----0-----0-------0---------0---|
---4---4-----4---4-----4---------|
-5-----------------------------5-|
---------------------------------|

---------------0---------0-------|
---------3-----------3-----3-----|
-----0-----0-------0---------0---|
---2---2-----2---2-----2---------|
-3-----------------------------3-|
---------------------------------|

---------0-----------------------|
---------------------1-------3---|
-----0-----0-----------0---------|
---2---2-----2-----2-----0-4---4-|
-0-------------2-3---------------|
---------------------------------|x3

---------------0---------0-------|
---------------------------------|
-----7---7-----------7-----7-----|
---5---5---5-------5---5-----5---|
-7-----------7---7-------------7-|
---------------------------------|

---------------0---------0-------|
---------3-----------3-----3-----|
-----0-----0-------0---------0---|
---4---4-----4---4-----4---------|
-5-----------------------------5-|
---------------------------------|

---------------0---------0-------|
---------3-----------3-----3-----|
-----0-----0-------0---------0---|
---2---2-----2---2-----2---------|
-3-----------------------------3-|
---------------------------------|

Outro:
-----------------------------------------------------------------|
---------3---------------3---------------3---------------3-------|
-----0-----0---------0-----0---------0-----0---------0-----0-----|
---4---4-----4-----4---4-----4-----4---4-----4-----4---4-----4---|
-0-------------0-2-------------2-2-------------2-2-------------2-|
-----------------------------------------------------------------|

It looks the same, but there are slight variations throughout the song.
I didn't tab the rain effect; figure that out yourself.
Tap to rate this tab
 
# A B C D E F G H I J K L M N O P Q R S T U V W X Y Z