Guitaretab - guitar tabs
Song name
# A B C D E F G H I J K L M N O P Q R S T U V W X Y Z

Thrice - Cold Cash And Colder Hearts Acoustic tab

Tuning: D G C F A D   


  Am   A(add9)  Am7  C  D(add9)  D6(add9)   E   F
|--0------0------3---0-----0--------0-------0---1--------|
|--1------0------1---1-----3--------0-------0---1--------|
|--2------2------2---0-----2--------2-------1---2--------|
|--2------2------2---2-----0--------0-------2---3--------|
|--0------0------0---3----------------------2------------|
|-------------------------------------------0------------|

Verse

          Am  C
they are sick

           Am  C
they are poor

          F                        D(add9)
and they die by the thousands and we look away

           Am   C   
they are wolves 

        Am   C
at the door

             F
and they're not going to move us

   D(add9)
or get in our way

          D(add9)
cause we don't have the time
  
  D6(add9)               Am  Am7
here at the top of the world

D(add9) 
doing just fine

D6(add9)                       Am
here at the top of the world

F    E      Am
we hold our own

    F  Am   E          Am
by keeping our hearts cold

           Am  C
different god

         Am  C
darker skin

 

           F                
they are just not a burden 

       D(add9)
that we'd like to bear

          Am C      Am  C
they are living in sin

           F                   D(add9)                     
there are so many reasons for us not to care

         D(add9)
but i'm feeling alright
[ Tab from: http://www.guitaretab.com/t/thrice/57330.html ]
D6(add9)                   Am  Am7   
here at the top of the world

D(add9)
doing just fine

D6(add9)                       D(add9)
here at the top of the world


Bridge: Guitar 1

                              Am  Am7  Am  Am7
we've learned money matters most

 
so we keep 

      D(add9)
our cards held close

                         Am  
here at the top of the world


Bridge: Guitar 2
|---------1-0----------|---------0--------------|
|-------1-----1--------|-----------1------------|
|-----2---------2--x2-|------2------00h2--x2-|
|---3------------------|----2-------------------|
|----------------------|--0---------------------|
|----------------------|------------------------|

|---------1-0----------|------------------------|
|-------1-----1--------|------------------------|
|-----2---------2---x2-|------------------------|
|---3------------------|------------------------|
|----------------------|------------------------|
|----------------------|------------------------|
End Of Bridge
 

F  E        Am
we hold our own

   F  Am   E          Am
by keeping our hearts cold

    Am    F            E       Am
and we've learned what matters most

   F  Am   E          Am
so we keep our hearts cold

Am
they are no one

E
they are nowhere

Am
they are not our problem

Am
not worth saving

Am
non existent

      E
if we keep our hearts cold

Am  A(add9)     
they are no one

Am  A(add9)
they are nowhere



The strumming on the last two lines is not correct. He changes chords too fast to tab out.
Related for Cold Cash And Colder Hearts Acoustic tab