Song name
# A B C D E F G H I J K L M N O P Q R S T U V W X Y Z

Thrice - That Hideous Strength tab

Drop C Tuning
/= slide
p= pull
h= hammer on
~= let ring
p.m = palm mute



Verse:
Teppei and Dustin (2x)
e|-----------------------------------------------------------------------------|
B|-----------------------------------------------------------------------------|
G|--------------10-10-10-----------------10-10-10-----------------10-10-10-----|
D|-0-0--0-0-0---10-10-10----0-0--0-0-0---10-10-10----0-0--0-0-0---10-10-10-----|
A|-0-0--0-0-0----8--8--8----0-0--0-0-0----7--7--7----0-0--0-0-0----8--8--8-----|
E|-0-0--0-0-0----8--8--8----0-0--0-0-0----7--7--7----0-0--0-0-0----8--8--8-----|
   p.m   p.m                p.m  p.m                 p.m   p.m

Cont.
e|------------------------------------------------------------------------------|
B|------------------------------------------------------------------------------|
G|------------------------------------------------------------------------------|
D|-0-0--0-0-0---1-1-1-----------------------------------------------------------|
A|-0-0--0-0-0---1-1-1-----------------------------------------------------------|
E|-0-0--0-0-0---1-1-1-----------------------------------------------------------|
   p.m   p.m

Chorus:
Teppei
e|-------------------------------------------------------------------------------|
B|----------------6-6-6-6-6-6-6-6-------------------6-6-6-6-6-6-8-6--------------|
G|-----------------5-5-5-5-5-5-5-5-------------------5-5-5-5-5-5-5-5-------------|
D|-0~----7~----8~-------------------0~----7~----8~-------------------------------|
A|-0~----7~----8~-------------------0~----7~----8~-------------------------------|
E|-0~----7~----8~-------------------0~----7~----8~-------------------------------|


Teppei Cont.
e|--------------------------8----------------------------------------------------|
B|-----------------6----8-----8--6--6--------------------------------------------|
G|------------------5-5--5-5----5--5--5------------------------------------------|
D|-0~----7~----8~------------------------0~----7~----8-8-------------------------|
A|-0~----7~----8~------------------------0~----7~----8-8-------------------------|
E|-0~----7~----8~------------------------0~----7~----8-8-------------------------|


Dustin
e|-------------------------------------------------------------------------------|
B|-------------------------------------------------------------------------------|
G|-------------------------------------------------------------------------------|
D|-0~----7~----8~----0~----7~----8~----0~----7~----8~----0~----7~----8-8---------|
A|-0~----7~----8~----0~----7~----8~----0~----7~----8~----0~----7~----8-8---------|
E|-0~----7~----8~----0~----7~----8~----0~----7~----8~----0~----7~----8-8---------|


Verse:
Teppei and Dustin. 2x
e|-----------------------------------------------------------------------------|
B|-----------------------------------------------------------------------------|
G|--------------10-10-10-----------------10-10-10-----------------10-10-10-----|
D|-0-0--0-0-0---10-10-10----0-0--0-0-0---10-10-10----0-0--0-0-0---10-10-10-----|
A|-0-0--0-0-0----8--8--8----0-0--0-0-0----7--7--7----0-0--0-0-0----8--8--8-----|
E|-0-0--0-0-0----8--8--8----0-0--0-0-0----7--7--7----0-0--0-0-0----8--8--8-----|
   p.m   p.m                p.m  p.m                 p.m   p.m

Cont.
e|------------------------------------------------------------------------------|
B|------------------------------------------------------------------------------|
G|------------------------------------------------------------------------------|
D|-0-0--0-0-0---1-1-1-----------------------------------------------------------|
A|-0-0--0-0-0---1-1-1-----------------------------------------------------------|
E|-0-0--0-0-0---1-1-1-----------------------------------------------------------|
   p.m   p.m

Next Part (when ghosts steal your breath...)2x
Teppei and Dustin
e|-------------------------------------------------------------------------------------|
B|-------------------------------------------------------------------------------------|
G|-------------------------------------10-10-10-10-10-10-10-10-10-10-10-10-10-10-10-10-|
D|-0-0-0-0-0--10-10-10-10-10-10-10-10--10-10-10-10-10-10-10-10-10-10-10-10-10-10-10-10-|
A|-0-0-0-0-0--10-10-10-10-10-10-10-10---8--8--8--8--8--8--8--8--7--7--7--7--7--7--7--7-|
E|-0-0-0-0-0--10-10-10-10-10-10-10-10---8--8--8--8--8--8--8--8--7--7--7--7--7--7--7--7-|


Third Time: (I pray that power be not in my words...)
Teppei 2x
e|-------------------------------------------------------------------------------------|
B|-------------------------------------------------------------------------------------|
G|-----2-------------------------------2-----------------------------------------------|
D|-0-0---0-0-3-2-0-2-0-2h3p2-0-2---0-0---0-0-3-2-0-2-0-2h3p2-0----0~-------------------|
A|-------------------------------------------------------------3--0~-------------------|
E|----------------------------------------------------------------0~-------------------|

Dustin 
e|-------------------------------------------------------------------------------------|
B|-------------------------------------------------------------------------------------|
G|-------------------------------------10-10-10-10-10-10-10-10-10-10-10-10-10-10-10-10-|
D|-0-0-0-0-0--10-10-10-10-10-10-10-10--10-10-10-10-10-10-10-10-10-10-10-10-10-10-10-10-|
A|-0-0-0-0-0--10-10-10-10-10-10-10-10---8--8--8--8--8--8--8--8--7--7--7--7--7--7--7--7-|
E|-0-0-0-0-0--10-10-10-10-10-10-10-10---8--8--8--8--8--8--8--8--7--7--7--7--7--7--7--7-|


Dustin Cont. 
e|-------------------------------------------------------------------------------------|
B|-------------------------------------------------------------------------------------|
G|-------------------------------------------------------------------------------------|
D|-0-0-0-0-0--10-10-10-10-10-10-10-10--5-5-5-5-5-5-5-5--3-3-3-3-3-3-3-3----------------|
A|-0-0-0-0-0--10-10-10-10-10-10-10-10--5-5-5-5-5-5-5-5--3-3-3-3-3-3-3-3----------------|
E|-0-0-0-0-0--10-10-10-10-10-10-10-10--5-5-5-5-5-5-5-5--3-3-3-3-3-3-3-3----------------|



Dustin Cont. 
e|-------------------------------------------------------------------------------------|
B|-------------------------------------------------------------------------------------|
G|-------------------------------------10-10-10-10-10-10-10-10-10-10-10-10-10-10-10-10-|
D|-0-0-0-0-0--10-10-10-10-10-10-10-10--10-10-10-10-10-10-10-10-10-10-10-10-10-10-10-10-|
A|-0-0-0-0-0--10-10-10-10-10-10-10-10---8--8--8--8--8--8--8--8--7--7--7--7--7--7--7--7-|
E|-0-0-0-0-0--10-10-10-10-10-10-10-10---8--8--8--8--8--8--8--8--7--7--7--7--7--7--7--7-|


Dustin Cont. 
e|-------------------------------------------------------------------------------------|
B|-------------------------------------------------------------------------------------|
G|-------------------------------------------------------------------------------------|
D|-0-0-0-0-0--10-10-10-10-10-10-10-10--5-5-5-5-5-5-5-5--3-3-3-3-3-3-3-3----0~----------|
A|-0-0-0-0-0--10-10-10-10-10-10-10-10--5-5-5-5-5-5-5-5--3-3-3-3-3-3-3-3----0~----------|
E|-0-0-0-0-0--10-10-10-10-10-10-10-10--5-5-5-5-5-5-5-5--3-3-3-3-3-3-3-3----0~----------|


After That...
Teppei
e|-------------------------------------------------------------------------------|
B|-------------------------------------------------------------------------------|
G|-----8/7--7-7--7/5--5-5--5/3--3-3--3/2--2-2------------------------------------|
D|-0~--8/7--7-7--7/5--5-5--5/3--3-3--3/2--2-2------------------------------------|
A|-0~--6/5--5-5--5/3--3-3--3/1--1-1--1/0--0-0------------------------------------|
E|-0~----------------------------------------------------------------------------|


Teppei Cont.
e|-------------------------------------------------------------------------------|
B|-------------------------------------------------------------------------------|
G|-----8/10--10-10--10\8--8-8--8\7--7-7--7\5--5-5--------------------------------|
D|-0~--8/10--10-10--10\8--8-8--8\7--7-7--7\5--5-5--------------------------------|
A|-0~--6/-8---8--8---8\6--6-6--6\5--5-5--5\3--3-3--------------------------------|
E|-0~----------------------------------------------------------------------------|


Dustin
e|-------------------------------------------------------------------------------|
B|-------------------------------------------------------------------------------|
G|-------------------------------------------------------------------------------|
D|-0~---------------------------------------------0~-----------------------------|
A|-0~---------------------------------------------0~-----------------------------|
E|-0~---------------------------------------------0~-----------------------------|



Next:
Teppei and Dustin
e|-------------------------------------------------------------------------------|
B|-------------------------------------------------------------------------------|
G|-------------------------------------------------------------------------------|
D|-0-0-0-0--0-0-0-0--0-0-0-0--0-0-0-0--0-0-0-0--0-0-0-0--0-0-0-0--0-0-0-0--------|
A|-0-0-0-0--0-0-0-0--0-0-0-0--0-0-0-0--0-0-0-0--0-0-0-0--0-0-0-0--0-0-0-0--------|
E|-0-0-0-0--0-0-0-0--0-0-0-0--0-0-0-0--0-0-0-0--0-0-0-0--0-0-0-0--0-0-0-0--------|
     p.m      p.m      p.m      p.m     p.m       p.m      p.m     p.m


Teppei (I feel a presence..)
e|-------------------------------------------------------------------------------|
B|-------------------------------------------------------------------------------|
G|-8/7----8/7----8/7----8/7------------------------------------------------------|
D|-8/7----8/7----8/7----8/7----2-2-2---5-5-5-------------------------------------|
A|-6/5----6/5----6/5----6/5----1-1-1---3-3-3-------------------------------------|
E|-------------------------------------------------------------------------------|


Dustin
e|-------------------------------------------------------------------------------|
B|-------------------------------------------------------------------------------|
G|-8/7----8/7----8/7----8/7------------------------------------------------------|
D|-8/7----8/7----8/7----8/7----2-2-2-2--5-5-5-5----------------------------------|
A|-6/5----6/5----6/5----6/5----1-1-1-1--3-3-3-3----------------------------------|
E|-------------------------------------------------------------------------------|



Teppei and Dustin
e|-------------------------------------------------------------------------------|
B|-------------------------------------------------------------------------------|
G|-------------------------------------------------------------------------------|
D|-0-0-0-0--0-0-0-0--0-0-0-0--0-0-0-0--0-0-0-0--0-0-0-0--0-0-0-0--0-0-0-0--------|
A|-0-0-0-0--0-0-0-0--0-0-0-0--0-0-0-0--0-0-0-0--0-0-0-0--0-0-0-0--0-0-0-0--------|
E|-0-0-0-0--0-0-0-0--0-0-0-0--0-0-0-0--0-0-0-0--0-0-0-0--0-0-0-0--0-0-0-0--------|
     p.m      p.m      p.m      p.m     p.m       p.m      p.m     p.m



Teppei (I feel cold fingers..)
e|-------------------------------------------------------------------------------|
B|-------------------------------------------------------------------------------|
G|-8/7----8/7----8/7----8/7------------------------------------------------------|
D|-8/7----8/7----8/7----8/7----2-2-2---5-5-5-------------------------------------|
A|-6/5----6/5----6/5----6/5----1-1-1---3-3-3-------------------------------------|
E|-------------------------------------------------------------------------------|


Dustin
e|-------------------------------------------------------------------------------|
B|-------------------------------------------------------------------------------|
G|-8/7----8/7----8/7----8/7------------------------------------------------------|
D|-8/7----8/7----8/7----8/7----2-2-2-2--5-5-5-5----------------------------------|
A|-6/5----6/5----6/5----6/5----1-1-1-1--3-3-3-3----------------------------------|
E|-------------------------------------------------------------------------------|


Teppei (Without you I am lost..)
e|-------------------------------------------------------------------------------|
B|-------------------------------------------------------------------------------|
G|-8/7----8/7----8/7----8/7----3p2-----------------------------------------------|
D|-8/7----8/7----8/7----8/7--------2-3p2-0--3-3-3--------------------------------|
A|-6/5----6/5----6/5----6/5-----------------3-3-3--------------------------------|
E|------------------------------------------3-3-3--------------------------------|


Dustin
e|-------------------------------------------------------------------------------|
B|-------------------------------------------------------------------------------|
G|-8/7----8/7----8/7----8/7------------------------------------------------------|
D|-8/7----8/7----8/7----8/7----3p2----------3-3-3--------------------------------|
A|-6/5----6/5----6/5----6/5--------0-3p0-0--3-3-3--------------------------------|
E|------------------------------------------3-3-3--------------------------------|



Outro: 



Teppei
e|-------------------------------------------------------------------------------|
B|-10p6--10p6---10p6---10p6----11p6---11p6---11p6---11p6-------------------------|
G|-----7------7------7------7-------7------7------7------7-----------------------|
D|-------------------------------------------------------------------------------|
A|-------------------------------------------------------------------------------|
E|-------------------------------------------------------------------------------|

Teppei Cont.
e|-------------------------------------------------------------------------------|
B|-13p6---13p6---13p6---13p6----11p6---11p6---11p6---11p6------------------------|
G|------7------7------7------7-------7------7------7------7----------------------|
D|-------------------------------------------------------------------------------|
A|-------------------------------------------------------------------------------|
E|-------------------------------------------------------------------------------|


Dustin 2x
e|-----------------------------------------------------------------------------|
B|-----------------------------------------------------------------------------|
G|--------------10-10-10-----------------10-10-10-----------------10-10-10-----|
D|-0-0--0-0-0---10-10-10----0-0--0-0-0---10-10-10----0-0--0-0-0---10-10-10-----|
A|-0-0--0-0-0----8--8--8----0-0--0-0-0----7--7--7----0-0--0-0-0----8--8--8-----|
E|-0-0--0-0-0----8--8--8----0-0--0-0-0----7--7--7----0-0--0-0-0----8--8--8-----|
   p.m   p.m                p.m  p.m                 p.m   p.m



Dustin Cont.
e|-------------------------------------------------------------------------------|
B|-------------------------------------------------------------------------------|
G|-------------------------------------------------------------------------------|
D|-0-0--0-0-0---1-1-1------------------------------------------------------------|
A|-0-0--0-0-0---1-1-1------------------------------------------------------------|
E|-0-0--0-0-0---1-1-1------------------------------------------------------------|
   p.m   p.m



Teppei
e|-------------------------------------------------------------------------------|
B|-10p6--10p6---10p6---10p6----11p6---11p6---11p6---11p6-------------------------|
G|-----7------7------7------7-------7------7------7------7-----------------------|
D|-------------------------------------------------------------------------------|
A|-------------------------------------------------------------------------------|
E|-------------------------------------------------------------------------------|

Teppei Cont.
e|-------------------------------------------------------------------------------|
B|-13p6---13p6---13p6---13p6----11p6---11p6---11p6---11p6------------------------|
G|------7------7------7------7-------7------7------7------7----------------------|
D|-------------------------------------------------------------------------------|
A|-------------------------------------------------------------------------------|
E|-------------------------------------------------------------------------------|


Dustin 2x
e|-------------------------------------------------------------------------------|
B|-------------------------------------------------------------------------------|
G|-------------------------------------------------------------------------------|
D|-0-0-0-0----0-0-0-0----0-0-0-0----0-0-0-0--0-0-0-0----0~-----------------------|
A|-0-0-0-0----0-0-0-0----0-0-0-0----0-0-0-0--0-0-0-0----0~-----------------------|
E|-0-0-0-0----0-0-0-0----0-0-0-0----0-0-0-0--0-0-0-0----0~-----------------------|
   p.m        p.m        p.m        p.m      p.m

Let mine eyes not fail with looking upward..
Tap to rate this tab
 
# A B C D E F G H I J K L M N O P Q R S T U V W X Y Z