Song name
# A B C D E F G H I J K L M N O P Q R S T U V W X Y Z

Thrice - Image Of The Invisible tab

This is the only full and complete tab on here as originally recorded by Thrice...

Gtr I (C G C F A D) - 'Untitled'
Gtr II (C G C F A D) - 'Untitled'
Gtr III (C G C F A D) - 'Untitled'
Gtr IV (C G C F A D) - 'Untitled'


   Intro
    Fast Rock Q=135
    N.C.
   4/4
    Gtr II
     S  S  S  S  S  S  S  S  S  S  S  S  S  S  S  S
||--------------------------------------------------|
||o-------------------------------------------------|
||--14-14-14-14-14-14-14-14-14-14-14-14-14-14-14-14-|
||---x--x--x--x--x--x--x--x--x--x--x--x--x--x--x--x-|
||o-12-12-12-12-12-12-12-12-12-12-12-12-12-12-12-12-|
||--------------------------------------------------|


   S  S  S  S  S  S  S  S  S  S  S  S  S  S  S  S
|-------------------------------------------------|
|-------------------------------------------------|
|-14-14-14-14-14-14-14-14-14-14-14-14-14-14-14-14-|
|--x--x--x--x--x--x--x--x--x--x--x--x--x--x--x--x-|
|-12-12-12-12-12-12-12-12-12-12-12-12-12-12-12-12-|
|-------------------------------------------------|


  N.C.
   S  S  S  S  S  S  S  S  S  S  S  S  S  S  S  S
|-------------------------------------------------|
|-------------------------------------------------|
|-10-10-10-10-10-10-10-10-10-10-10-10-10-10-10-10-|
|--x--x--x--x--x--x--x--x--x--x--x--x--x--x--x--x-|
|--8--8--8--8--8--8--8--8--8--8--8--8--8--8--8--8-|
|-------------------------------------------------|


  S S S S S S S S S S S S S S S S
|----------------------------------||
|---------------------------------o||
|-7-7-7-7-7-7-7-7-7-7-7-7-7-7-7-7--||
|-x-x-x-x-x-x-x-x-x-x-x-x-x-x-x-x--||
|-5-5-5-5-5-5-5-5-5-5-5-5-5-5-5-5-o||
|----------------------------------||


   Verse
    N.C.
    Gtr I
     W
||--------------------------------------------------|
||o-------------------------------------------------|
||--------------------------------------------------|
||---7----------------------------------------------|
||o--x----------------------------------------------|
||---7----------------------------------------------|
|
|   Gtr II
|    S  S  S  S  S  S  S  S  S  S  S  S  S  S  S  S
||--------------------------------------------------|
||o-------------------------------------------------|
||--14-14-14-14-14-14-14-14-14-14-14-14-14-14-14-14-|
||---x--x--x--x--x--x--x--x--x--x--x--x--x--x--x--x-|
||o-12-12-12-12-12-12-12-12-12-12-12-12-12-12-12-12-|
||--------------------------------------------------|


  +W
|---------------------------------------------------|
|---------------------------------------------------|
|---------------------------------------------------|
|-(7)-----------------------------------------------|
|---------------------------------------------------|
|-(7)-----------------------------------------------|
|
|  S   S  S  S  S  S  S  S  S  S  S  S  S  S  S  S
|---------------------------------------------------|
|---------------------------------------------------|
|-14--14-14-14-14-14-14-14-14-14-14-14-14-14-14-14--|
|--x---x--x--x--x--x--x--x--x--x--x--x--x--x--x--x--|
|-12--12-12-12-12-12-12-12-12-12-12-12-12-12-12-12--|
|---------------------------------------------------|


  N.C.
   <
   H                       +H
|-24----------------------(24)----------------------|
|---------------------------------------------------|
|---------------------------------------------------|
|---------------------------------------------------|
|---------------------------------------------------|
|---------------------------------------------------|
|
|  S  S  S  S  S  S  S  S   S   S  S  S  S  S  S  S
|---------------------------------------------------|
|---------------------------------------------------|
|-10-10-10-10-10-10-10-10--10--10-10-10-10-10-10-10-|
|--x--x--x--x--x--x--x--x---x---x--x--x--x--x--x--x-|
|--8--8--8--8--8--8--8--8---8---8--8--8--8--8--8--8-|
|---------------------------------------------------|


   <
   H                +H
|-17---------------(17)----------------||
|-------------------------------------o||
|--------------------------------------||
|--------------------------------------||
|-------------------------------------o||
|--------------------------------------||
|
|  S S S S S S S S   S  S S S S S S S
|--------------------------------------||
|-------------------------------------o||
|--7-7-7-7-7-7-7-7---7--7-7-7-7-7-7-7--||
|--x-x-x-x-x-x-x-x---x--x-x-x-x-x-x-x--||
|--5-5-5-5-5-5-5-5---5--5-5-5-5-5-5-5-o||
|--------------------------------------||


   Pre-Chorus
    N.C.
     E.        E.        E.        E.        E     E
||------------------------------------------------------|
||o-----------------------------------------------------|
||------------------------------------------------------|
||---7---------7---------7---------7---------7-----7----|
||o--x---------x---------x---------x---------x-----x----|
||---7---------7---------7---------7---------7-----7----|
|
|    S   S  S  S   S  S  S   S  S  S   S  S  S  S  S  S
||------------------------------------------------------|
||o-----------------------------------------------------|
||--14--14-14-14--14-14-14--14-14-14--14-14-14-14-14-14-|
||---x---x--x--x---x--x--x---x--x--x---x--x--x--x--x--x-|
||o-12--12-12-12--12-12-12--12-12-12--12-12-12-12-12-12-|
||------------------------------------------------------|


   E.        E.        E.        E.        E     E
|------------------------------------------------------|
|------------------------------------------------------|
|------------------------------------------------------|
|--7---------7---------7---------7---------7-----7-----|
|--x---------x---------x---------x---------x-----x-----|
|--7---------7---------7---------7---------7-----7-----|
|
|  S   S  S  S   S  S  S   S  S  S   S  S  S  S  S  S
|------------------------------------------------------|
|------------------------------------------------------|
|-14--14-14-14--14-14-14--14-14-14--14-14-14-14-14-14--|
|--x---x--x--x---x--x--x---x--x--x---x--x--x--x--x--x--|
|-12--12-12-12--12-12-12--12-12-12--12-12-12-12-12-12--|
|------------------------------------------------------|


  1.
  N.C.
   E.        E.        E.        E.        E     E
|-----------------------------------------------------|
|-----------------------------------------------------|
|-----------------------------------------------------|
|--7---------7---------7---------7---------7-----7----|
|--x---------x---------x---------x---------x-----x----|
|--7---------7---------7---------7---------7-----7----|
|
|  S   S  S  S   S  S  S   S  S  S   S  S  S  S  S  S
|-----------------------------------------------------|
|-----------------------------------------------------|
|-10--10-10-10--10-10-10--10-10-10--10-10-10-10-10-10-|
|--x---x--x--x---x--x--x---x--x--x---x--x--x--x--x--x-|
|--8---8--8--8---8--8--8---8--8--8---8--8--8--8--8--8-|
|-----------------------------------------------------|


  E.     E.     E.     E.     E   E
|--------------------------------------||
|-------------------------------------o||
|--------------------------------------||
|-7------7------7------7------7---7----||
|-x------x------x------x------x---x---o||
|-7------7------7------7------7---7----||
|
| S  S S S  S S S  S S S  S S S S S S
|--------------------------------------||
|-------------------------------------o||
|-7--7-7-7--7-7-7--7-7-7--7-7-7-7-7-7--||
|-x--x-x-x--x-x-x--x-x-x--x-x-x-x-x-x--||
|-5--5-5-5--5-5-5--5-5-5--5-5-5-5-5-5-o||
|--------------------------------------||


  2.
  N.C.
   E.        E.        E.        E.        E     E
|-----------------------------------------------------|
|-----------------------------------------------------|
|-----------------------------------------------------|
|--7---------7---------7---------7---------7-----7----|
|--x---------x---------x---------x---------x-----x----|
|--7---------7---------7---------7---------7-----7----|
|
|  S   S  S  S   S  S  S   S  S  S   S  S  S  S  S  S
|-----------------------------------------------------|
|-----------------------------------------------------|
|-10--10-10-10--10-10-10--10-10-10--10-10-10-10-10-10-|
|--x---x--x--x---x--x--x---x--x--x---x--x--x--x--x--x-|
|--8---8--8--8---8--8--8---8--8--8---8--8--8--8--8--8-|
|-----------------------------------------------------|


  E.     E.     E.     E.     e E
|----------------------------------||
|----------------------------------||
|----------------------------------||
|-7------7------7------7------7----||
|-x------x------x------x------x----||
|-7------7------7------7------7----||
|
| S  S S S  S S S  S S S  S S e E
|----------------------------------||
|----------------------------------||
|-7--7-7-7--7-7-7--7-7-7--7-7-7----||
|-x--x-x-x--x-x-x--x-x-x--x-x-x----||
|-5--5-5-5--5-5-5--5-5-5--5-5-5----||
|----------------------------------||


   Chorus
    $                                                                      To Coda
    $$
    F5                                  Fsus2
    Gtr I
     E   E      E  E  E   E      E  E    E   +E         E  E  E   +E          +Q
||-------------17----20--17-----------|-22--(22)b24----20-17-19--(19)b20-----(19)----|
||o-----17--------17------------17----|----------------------------------------------|
||--17-----------------------------17-|----------------------------------------------|
||------------------------------------|----------------------------------------------|
||o-----------------------------------|----------------------------------------------|
||------------------------------------|----------------------------------------------|
|
|   Gtr II
|    E.     E.     E  E.     E.     E    E.         E.     E  E.          E.       E
||------------------------------------|----------------------------------------------|
||o-----------------------------------|----------------------------------------------|
||--14-----14-----14-14-----14-----14-|--9----------9------9-12----------12-------12-|
||---x------x------x--x------x------x-|--x----------x------x--x-----------x--------x-|
||o-12-----12-----12-12-----12-----12-|--7----------7------7-10----------10-------10-|
||------------------------------------|----------------------------------------------|
|
|   Gtr III
|    E.     E.     E  E.     E.     E    E.         E.     E  E.          E.       E
||------------------------------------|----------------------------------------------|
||o-----------------------------------|----------------------------------------------|
||------------------------------------|----------------------------------------------|
||---3------3------3--3------3------3-|--5----------5------5--5-----------5--------5-|
||o--3------3------3--3------3------3-|--3----------3------3--3-----------3--------3-|
||---3------3------3--3------3------3-|--3----------3------3--3-----------3--------3-|


                                                                     To Dbl. Coda
  A5                                  G5
   E   E      E  E  E   E      E  E    E   +E          E  E  E   +E          +Q
|------------17----20--17-----------|-22--(22)b24-----20-17-19--(19)b20-----(19)-----||
|-----17--------17------------17----|-----------------------------------------------o||
|-17-----------------------------17-|------------------------------------------------||
|-----------------------------------|------------------------------------------------||
|-----------------------------------|-----------------------------------------------o||
|-----------------------------------|------------------------------------------------||
|
|  E.     E.     E  E.     E.     E    E.          E.     E  E.          E.       E
|-----------------------------------|------------------------------------------------||
|-----------------------------------|-----------------------------------------------o||
|-17-----17-----17-17-----17-----17-|-16----------16-----16-16----------16-------16--||
|--x------x------x--x------x------x-|--x-----------x------x--x-----------x--------x--||
|-15-----15-----15-15-----15-----15-|-14----------14-----14-14----------14-------14-o||
|-----------------------------------|------------------------------------------------||
|
|  E.     E.     E  E.     E.     E    E.          E.     E  E.          E.       E
|-----------------------------------|------------------------------------------------||
|-----------------------------------|-----------------------------------------------o||
|-----------------------------------|------------------------------------------------||
|--7------7------7--7------7------7-|--5-----------5------5--5-----------5--------5--||
|--7------7------7--7------7------7-|--5-----------5------5--5-----------5--------5-o||
|--7------7------7--7------7------7-|--5-----------5------5--5-----------5--------5--||


  F5                               Fsus2
  Gtrs I, II
   E.  E.  E  +E   E  S  S  S  S    E.  E.  E  +E   E  E  E
|--------------------------------|--------------------------||
|--------------------------------|--------------------------||
|-14--14--14-(14)-14-14-14-14-14-|-17--17--16-(16)-16-16-16-||
|--x---x---x-------x--x--x--x--x-|--x---x---x-------x--x--x-||
|-12--12--12-(12)-12-12-12-12-12-|-15--15--14-(14)-14-14-14-||
|--------------------------------|--------------------------||
|
| Gtr III
|  E.  E.  E  +E   E  S  S  S  S    E.  E.  E  +E   E  E  E
|--------------------------------|--------------------------||
|--------------------------------|--------------------------||
|--------------------------------|--------------------------||
|--3---3---3--(3)--3--3--3--3--3-|--5---5---5--(5)--5--5--5-||
|--3---3---3--(3)--3--3--3--3--3-|--3---3---3--(3)--3--3--3-||
|--3---3---3--(3)--3--3--3--3--3-|--3---3---3--(3)--3--3--3-||


 Verse
  A5
  Gtr I
   W
|-------------------------------------------------|
|-------------------------------------------------|
|-------------------------------------------------|
|--7----------------------------------------------|
|--7----------------------------------------------|
|--7----------------------------------------------|
|
| Gtr II
|  S  S  S  S  S  S  S  S  S  S  S  S  S  S  S  S
|-------------------------------------------------|
|-------------------------------------------------|
|-14-14-14-14-14-14-14-14-14-14-14-14-14-14-14-14-|
|--x--x--x--x--x--x--x--x--x--x--x--x--x--x--x--x-|
|-12-12-12-12-12-12-12-12-12-12-12-12-12-12-12-12-|
|-------------------------------------------------|


  +W
|--------------------------------------------------|
|--------------------------------------------------|
|--------------------------------------------------|
|-(7)----------------------------------------------|
|-(7)----------------------------------------------|
|-(7)----------------------------------------------|
|
|  S   S  S  S  S  S  S  S  S  S  S  S  S  S  S  S
|--------------------------------------------------|
|--------------------------------------------------|
|-14--14-14-14-14-14-14-14-14-14-14-14-14-14-14-14-|
|--x---x--x--x--x--x--x--x--x--x--x--x--x--x--x--x-|
|-12--12-12-12-12-12-12-12-12-12-12-12-12-12-12-12-|
|--------------------------------------------------|


  N.C.
    <
    W
|-[17]----------------------------------------------|
|---------------------------------------------------|
|---------------------------------------------------|
|--(7)----------------------------------------------|
|--(7)----------------------------------------------|
|--(7)----------------------------------------------|
|
|   S   S  S  S  S  S  S  S  S  S  S  S  S  S  S  S
|---------------------------------------------------|
|---------------------------------------------------|
|--10--10-10-10-10-10-10-10-10-10-10-10-10-10-10-10-|
|---x---x--x--x--x--x--x--x--x--x--x--x--x--x--x--x-|
|---8---8--8--8--8--8--8--8--8--8--8--8--8--8--8--8-|
|---------------------------------------------------|


    >
   +H                H
|-(17)-------------------------------|
|------------------------------------|
|------------------------------------|
|------------------------------------|
|------------------------------------|
|------------------------------------|
|
|   S  S S S S S S S S S S S S S S S
|------------------------------------|
|------------------------------------|
|---7--7-7-7-7-7-7-7-7-7-7-7-7-7-7-7-|
|---x--x-x-x-x-x-x-x-x-x-x-x-x-x-x-x-|
|---5--5-5-5-5-5-5-5-5-5-5-5-5-5-5-5-|
|------------------------------------|


  N.C.
  Gtr II
   S  S  S  S  S  S  S  S  S  S  S  S  S  S  S  S
|-------------------------------------------------|
|-------------------------------------------------|
|-14-14-14-14-14-14-14-14-14-14-14-14-14-14-14-14-|
|--x--x--x--x--x--x--x--x--x--x--x--x--x--x--x--x-|
|-12-12-12-12-12-12-12-12-12-12-12-12-12-12-12-12-|
|-------------------------------------------------|


   S  S  S  S  S  S  S  S  S  S  S  S  S  S  S  S
|-------------------------------------------------|
|-------------------------------------------------|
|-14-14-14-14-14-14-14-14-14-14-14-14-14-14-14-14-|
|--x--x--x--x--x--x--x--x--x--x--x--x--x--x--x--x-|
|-12-12-12-12-12-12-12-12-12-12-12-12-12-12-12-12-|
|-------------------------------------------------|


  N.C.
   S  S  S  S  S  S  S  S  S  S  S  S  S  S  S  S
|-------------------------------------------------|
|-------------------------------------------------|
|-10-10-10-10-10-10-10-10-10-10-10-10-10-10-10-10-|
|--x--x--x--x--x--x--x--x--x--x--x--x--x--x--x--x-|
|--8--8--8--8--8--8--8--8--8--8--8--8--8--8--8--8-|
|-------------------------------------------------|


  S S S S S S S S S S S S S S S S
|---------------------------------||
|---------------------------------||
|-7-7-7-7-7-7-7-7-7-7-7-7-7-7-7-7-||
|-x-x-x-x-x-x-x-x-x-x-x-x-x-x-x-x-||
|-5-5-5-5-5-5-5-5-5-5-5-5-5-5-5-5-||
|---------------------------------||


   Pre-Chorus
    N.C.
    Gtr I
     E.        E.        E.        E.        E     E
||------------------------------------------------------|
||o-----------------------------------------------------|
||------------------------------------------------------|
||---7---------7---------7---------7---------7-----7----|
||o--x---------x---------x---------x---------x-----x----|
||---7---------7---------7---------7---------7-----7----|
|
|   Gtr II
|    S   S  S  S   S  S  S   S  S  S   S  S  S  S  S  S
||------------------------------------------------------|
||o-----------------------------------------------------|
||--14--14-14-14--14-14-14--14-14-14--14-14-14-14-14-14-|
||---x---x--x--x---x--x--x---x--x--x---x--x--x--x--x--x-|
||o-12--12-12-12--12-12-12--12-12-12--12-12-12-12-12-12-|
||------------------------------------------------------|


   E.        E.        E.        E.        E     E
|------------------------------------------------------|
|------------------------------------------------------|
|------------------------------------------------------|
|--7---------7---------7---------7---------7-----7-----|
|--x---------x---------x---------x---------x-----x-----|
|--7---------7---------7---------7---------7-----7-----|
|
|  S   S  S  S   S  S  S   S  S  S   S  S  S  S  S  S
|------------------------------------------------------|
|------------------------------------------------------|
|-14--14-14-14--14-14-14--14-14-14--14-14-14-14-14-14--|
|--x---x--x--x---x--x--x---x--x--x---x--x--x--x--x--x--|
|-12--12-12-12--12-12-12--12-12-12--12-12-12-12-12-12--|
|------------------------------------------------------|


  1.
  N.C.
   E.        E.        E.        E.        E     E
|-----------------------------------------------------|
|-----------------------------------------------------|
|-----------------------------------------------------|
|--7---------7---------7---------7---------7-----7----|
|--x---------x---------x---------x---------x-----x----|
|--7---------7---------7---------7---------7-----7----|
|
|  S   S  S  S   S  S  S   S  S  S   S  S  S  S  S  S
|-----------------------------------------------------|
|-----------------------------------------------------|
|-10--10-10-10--10-10-10--10-10-10--10-10-10-10-10-10-|
|--x---x--x--x---x--x--x---x--x--x---x--x--x--x--x--x-|
|--8---8--8--8---8--8--8---8--8--8---8--8--8--8--8--8-|
|-----------------------------------------------------|


  E.     E.     E.     E.     E   E
|--------------------------------------||
|-------------------------------------o||
|--------------------------------------||
|-7------7------7------7------7---7----||
|-x------x------x------x------x---x---o||
|-7------7------7------7------7---7----||
|
| S  S S S  S S S  S S S  S S S S S S
|--------------------------------------||
|-------------------------------------o||
|-7--7-7-7--7-7-7--7-7-7--7-7-7-7-7-7--||
|-x--x-x-x--x-x-x--x-x-x--x-x-x-x-x-x--||
|-5--5-5-5--5-5-5--5-5-5--5-5-5-5-5-5-o||
|--------------------------------------||


  2.
                                               D.S. al Coda
  N.C.
   E.        E.        E.        E.        E     E      q  H.
|-----------------------------------------------------|----------||
|-----------------------------------------------------|----------||
|-----------------------------------------------------|----------||
|--7---------7---------7---------7---------7-----7----|-7--------||
|--x---------x---------x---------x---------x-----x----|-x--------||
|--7---------7---------7---------7---------7-----7----|-7--------||
|
|  S   S  S  S   S  S  S   S  S  S   S  S  S  S  S  S   q  H.
|-----------------------------------------------------|----------||
|-----------------------------------------------------|----------||
|-10--10-10-10--10-10-10--10-10-10--10-10-10-10-10-10-|-7--------||
|--x---x--x--x---x--x--x---x--x--x---x--x--x--x--x--x-|-x--------||
|--8---8--8--8---8--8--8---8--8--8---8--8--8--8--8--8-|-5--------||
|-----------------------------------------------------|----------||


  &
  A5                        G5
  Gtr I
   E  E  E  E  E  E  E  E    E  +E      E  E  E  +E      +Q
|-------17----20-17-------|-22-(22)b24-20-17-19-(19)b20-(19)----||
|----17----17-------17----|-------------------------------------||
|-17-------------------17-|-------------------------------------||
|-------------------------|-------------------------------------||
|-------------------------|-------------------------------------||
|-------------------------|-------------------------------------||
|
| Gtr II
|  E  E  E  E  E  E  E  E    E   E      E  E  E   E       E   E
|-------------------------|-------------------------------------||
|-------------------------|-------------------------------------||
|-17-17-17-17-17-17-17-17-|-16--16-----16-16-16--16------16--16-||
|--x--x--x--x--x--x--x--x-|--x---x------x--x--x---x-------x---x-||
|-15-15-15-15-15-15-15-15-|-14--14-----14-14-14--14------14--14-||
|-------------------------|-------------------------------------||
|
| Gtr III
|  E  E  E  E  E  E  E  E    E   E      E  E  E   E       E   E
|-------------------------|-------------------------------------||
|-------------------------|-------------------------------------||
|-------------------------|-------------------------------------||
|--7--7--7--7--7--7--7--7-|--5---5------5--5--5---5-------5---5-||
|--7--7--7--7--7--7--7--7-|--5---5------5--5--5---5-------5---5-||
|--7--7--7--7--7--7--7--7-|--5---5------5--5--5---5-------5---5-||


 Guitar Break
  F           G#m6          Am                    A7
  Gtr I
                >
   W           +W            +W            +W
|-17--------|-(17)--------|-(17)--------|-(17)----------------|
|-----------|-------------|-------------|---------------------|
|-----------|-------------|-------------|---------------------|
|-----------|-------------|-------------|---------------------|
|-----------|-------------|-------------|---------------------|
|-----------|-------------|-------------|---------------------|
|
| Gtr III
|               >
|  W           +W             W             W
|-----------|-------------|-------------|---------------------|
|-----------|-------------|-------------|---------------------|
|-----------|-------------|-------------|---------------------|
|--3--------|--(3)--------|-------------|---------------------|
|--3--------|--(3)--------|-------------|---------------------|
|--3--------|--(3)--------|-------------|---------------------|
|
| Gtr IV
|  W            W             W            +H     E  E   Q
|-----------|-------------|-------------|---------------------|
|-----------|-------------|-------------|---------------------|
|-----------|-------------|-------------|---------------------|
|-^7--------|-^-6---------|-^10---------|-(10)----5h=7p==5\---|
|-^3--------|-^-7---------|-^-7---------|--(7)----7-(7)-(7)\--|
|-^3--------|-^-6---------|-^-7---------|--(7)----7-(7)-(7)\--|


  F           G#m6        Am                   A7
  Gtr IV
   W           W            W           +H     E  E   Q
|-----------|-----------|------------|---------------------||
|-----------|-----------|------------|---------------------||
|-----------|-^9--------|-^-9--------|---------------------||
|-^7--------|-^6--------|-^10--------|-(10)----5h=7p==5\---||
|-^3--------|-^7--------|-^-7--------|--(7)----7-(7)-(7)\--||
|-^3--------|-^6--------|-^-7--------|--(7)----7-(7)-(7)\--||


   Interlude
    F5                                G#m6
    S S S S S S S S S S S S S S S S   S S S S S S S S S S S S S S S S
||----------------------------------|----------------------------------|
||o---------------------------------|----------------------------------|
||----------------------------------|----------------------------------|
||----------------------------------|----------------------------------|
||o-3-3-3-3-3-3-3-3-3-3-3-3-3-3-3-3-|-7-7-7-7-7-7-7-7-7-7-7-7-7-7-7-7--|
||--3-3-3-3-3-3-3-3-3-3-3-3-3-3-3-3-|-6-6-6-6-6-6-6-6-6-6-6-6-6-6-6-6--|


  1.
  A5
  S S S S S S S S S S S S S S S S   S S S S S S S S S S S S S S S S
|---------------------------------|----------------------------------||
|---------------------------------|---------------------------------o||
|---------------------------------|----------------------------------||
|---------------------------------|----------------------------------||
|-7-7-7-7-7-7-7-7-7-7-7-7-7-7-7-7-|-7-7-7-7-7-7-7-7-7-7-7-7-7-7-7-7-o||
|-7-7-7-7-7-7-7-7-7-7-7-7-7-7-7-7-|-7-7-7-7-7-7-7-7-7-7-7-7-7-7-7-7--||


  2.
  A5
  Gtr IV
  S S S S S S S S S S S S S S S S
|---------------------------------|
|---------------------------------|
|---------------------------------|
|---------------------------------|
|-7-7-7-7-7-7-7-7-7-7-7-7-7-7-7-7-|
|-7-7-7-7-7-7-7-7-7-7-7-7-7-7-7-7-|
|
| Gtr II
| W
|---------------------------------|
|---------------------------------|
|---------------------------------|
|---------------------------------|
|---------------------------------|
|---------------------------------|


   S  S  S  S  S  S  S  S  S  S  S  S  S  S  S  S
|-------------------------------------------------||
|-------------------------------------------------||
|-------------------------------------------------||
|-------------------------------------------------||
|--7--7--7--7--7--7--7--7--7--7--7--7--7--7--7--7-||
|--7--7--7--7--7--7--7--7--7--7--7--7--7--7--7--7-||
|
|  <
|  S  S  S  S  S  S  S  S  S  S  S  S  S  S  S  S
|-------------------------------------------------||
|-------------------------------------------------||
|-14-14-14-14-14-14-14-14-14-14-14-14-14-14-14-14-||
|--x--x--x--x--x--x--x--x--x--x--x--x--x--x--x--x-||
|-12-12-12-12-12-12-12-12-12-12-12-12-12-12-12-12-||
|-------------------------------------------------||


   Verse
    N.C.
    Gtr II
     S  S  S  S  S  S  S  S  S  S  S  S  S  S  S  S
||--------------------------------------------------|
||o-------------------------------------------------|
||--14-14-14-14-14-14-14-14-14-14-14-14-14-14-14-14-|
||---x--x--x--x--x--x--x--x--x--x--x--x--x--x--x--x-|
||o-12-12-12-12-12-12-12-12-12-12-12-12-12-12-12-12-|
||--------------------------------------------------|


   S  S  S  S  S  S  S  S  S  S  S  S  S  S  S  S
|--------------------------------------------------|
|--------------------------------------------------|
|-14-14-14-14-14-14-14-14-14-14-14-14-14-14-14-14--|
|--x--x--x--x--x--x--x--x--x--x--x--x--x--x--x--x--|
|-12-12-12-12-12-12-12-12-12-12-12-12-12-12-12-12--|
|--------------------------------------------------|


  N.C.
   S  S  S  S  S  S  S  S  S  S  S  S  S  S  S  S
|-------------------------------------------------|
|-------------------------------------------------|
|-10-10-10-10-10-10-10-10-10-10-10-10-10-10-10-10-|
|--x--x--x--x--x--x--x--x--x--x--x--x--x--x--x--x-|
|--8--8--8--8--8--8--8--8--8--8--8--8--8--8--8--8-|
|-------------------------------------------------|


  S S S S S S S S S S S S S S S S
|----------------------------------||
|---------------------------------o||
|-7-7-7-7-7-7-7-7-7-7-7-7-7-7-7-7--||
|-x-x-x-x-x-x-x-x-x-x-x-x-x-x-x-x--||
|-5-5-5-5-5-5-5-5-5-5-5-5-5-5-5-5-o||
|----------------------------------||


   Pre-Chorus
    N.C.
    Gtr I
     E.        E.        E.        E.        E     E
||------------------------------------------------------|
||o-----------------------------------------------------|
||------------------------------------------------------|
||---7---------7---------7---------7---------7-----7----|
||o--x---------x---------x---------x---------x-----x----|
||---7---------7---------7---------7---------7-----7----|
|
|   Gtr II
|    S   S  S  S   S  S  S   S  S  S   S  S  S  S  S  S
||------------------------------------------------------|
||o-----------------------------------------------------|
||--14--14-14-14--14-14-14--14-14-14--14-14-14-14-14-14-|
||---x---x--x--x---x--x--x---x--x--x---x--x--x--x--x--x-|
||o-12--12-12-12--12-12-12--12-12-12--12-12-12-12-12-12-|
||------------------------------------------------------|


   E.        E.        E.        E.        E     E
|------------------------------------------------------|
|------------------------------------------------------|
|------------------------------------------------------|
|--7---------7---------7---------7---------7-----7-----|
|--x---------x---------x---------x---------x-----x-----|
|--7---------7---------7---------7---------7-----7-----|
|
|  S   S  S  S   S  S  S   S  S  S   S  S  S  S  S  S
|------------------------------------------------------|
|------------------------------------------------------|
|-14--14-14-14--14-14-14--14-14-14--14-14-14-14-14-14--|
|--x---x--x--x---x--x--x---x--x--x---x--x--x--x--x--x--|
|-12--12-12-12--12-12-12--12-12-12--12-12-12-12-12-12--|
|------------------------------------------------------|


  1.
  N.C.
   E.        E.        E     E.        E.        E
|-----------------------------------------------------|
|-----------------------------------------------------|
|-----------------------------------------------------|
|--7---------7---------7-----7---------7---------7----|
|--x---------x---------x-----x---------x---------x----|
|--7---------7---------7-----7---------7---------7----|
|
|  S   S  S  S   S  S  S  S  S   S  S  S   S  S  S  S
|-----------------------------------------------------|
|-----------------------------------------------------|
|-10--10-10-10--10-10-10-10-10--10-10-10--10-10-10-10-|
|--x---x--x--x---x--x--x--x--x---x--x--x---x--x--x--x-|
|--8---8--8--8---8--8--8--8--8---8--8--8---8--8--8--8-|
|-----------------------------------------------------|


  E.     E.     E.     E.     E   E
|--------------------------------------||
|-------------------------------------o||
|--------------------------------------||
|-7------7------7------7------7---7----||
|-x------x------x------x------x---x---o||
|-7------7------7------7------7---7----||
|
| S  S S S  S S S  S S S  S S S S S S
|--------------------------------------||
|-------------------------------------o||
|-7--7-7-7--7-7-7--7-7-7--7-7-7-7-7-7--||
|-x--x-x-x--x-x-x--x-x-x--x-x-x-x-x-x--||
|-5--5-5-5--5-5-5--5-5-5--5-5-5-5-5-5-o||
|--------------------------------------||


  2.
                                        D.S.S. al Dbl. Coda
  N.C.
   E.        E.        E.        E.        E     E      q  H.
|-----------------------------------------------------|----------||
|-----------------------------------------------------|----------||
|-----------------------------------------------------|----------||
|--7---------7---------7---------7---------7-----7----|-7--------||
|--x---------x---------x---------x---------x-----x----|-x--------||
|--7---------7---------7---------7---------7-----7----|-7--------||
|
|  S   S  S  S   S  S  S   S  S  S   S  S  S  S  S  S   q  H.
|-----------------------------------------------------|----------||
|-----------------------------------------------------|----------||
|-10--10-10-10--10-10-10--10-10-10--10-10-10-10-10-10-|-7--------||
|--x---x--x--x---x--x--x---x--x--x---x--x--x--x--x--x-|-x--------||
|--8---8--8--8---8--8--8---8--8--8---8--8--8--8--8--8-|-5--------||
|-----------------------------------------------------|----------||


   Breakdown Chorus
    &&
    F5                        G5
   2/2
    Gtr I
     E  E  E  E  E  E  E  E    E  +E      E  E  E  +E      +Q
||--------17----20-17-------|-22-(22)b24-20-17-19-(19)b20-(19)---|
||o----17----17-------17----|------------------------------------|
||--17-------------------17-|------------------------------------|
||--------------------------|------------------------------------|
||o-------------------------|------------------------------------|
||--------------------------|------------------------------------|
|
|   Gtrs II, III
|    E  E  E  E  E  E  E  E    E   E      E  E  E   E       E  E
||--------------------------|------------------------------------|
||o-------------------------|------------------------------------|
||--------------------------|------------------------------------|
||---3--3--3--3--3--3--3--3-|--5---5------5--5--5---5-------5--5-|
||o--3--3--3--3--3--3--3--3-|--5---5------5--5--5---5-------5--5-|
||---3--3--3--3--3--3--3--3-|--5---5------5--5--5---5-------5--5-|


  A5                        Csus2
   E  E  E  E  E  E  E  E    E  +E      E  E  E  +E      +Q      4x
|-------17----20-17-------|-22-(22)b24-20-17-19-(19)b20-(19)-----||
|----17----17-------17----|-------------------------------------o||
|-17-------------------17-|--------------------------------------||
|-------------------------|--------------------------------------||
|-------------------------|-------------------------------------o||
|-------------------------|--------------------------------------||
|
|  E  E  E  E  E  E  E  E    E   E      E  E  E   E       E   E  4x
|-------------------------|--------------------------------------||
|-------------------------|-------------------------------------o||
|-------------------------|--------------------------------------||
|--7--7--7--7--7--7--7--7-|-12--12-----12-12-12--12------12--12--||
|--7--7--7--7--7--7--7--7-|-10--10-----10-10-10--10------10--10-o||
|--7--7--7--7--7--7--7--7-|-10--10-----10-10-10--10------10--10--||


 Outro
  Slower Q=125
  F
 4/4
  Gtr II
   E.  E.  E  +H        +W            E.  E.  E  +H        +W
|--------------------|-------------|--------------------|---------|
|--------------------|-------------|--------------------|---------|
|--------------------|-------------|--------------------|---------|
|--3---3---3--(3)----|--(3)--------|--3---3---3--(3)----|--(3)----|
|--3---3---3--(3)----|--(3)--------|--3---3---3--(3)----|--(3)----|
|--3---3---3--(3)----|--(3)--------|--3---3---3--(3)----|--(3)----|
|
| Gtr III
|  E.  E.  E  +H        +W            E.  E.  E  +H        +W
|--------------------|-------------|--------------------|---------|
|--------------------|-------------|--------------------|---------|
|-17--17--16-(16)----|-(16)--------|-16--17--14-(14)----|-(14)----|
|--x---x---x---------|-------------|--x---x---x---------|---------|
|-15--15--14-(14)----|-(14)--------|-14--15--12-(12)----|-(12)----|
|--------------------|-------------|--------------------|---------|


  F5
   E.  E.  E  +H        +W            E.  E.  E  +H        +W
|--------------------|-------------|--------------------|------------------|
|--------------------|-------------|--------------------|------------------|
|--------------------|-------------|--------------------|------------------|
|--3---3---3--(3)----|--(3)--------|--3---3---3--(3)----|--(3)-------------|
|--3---3---3--(3)----|--(3)--------|--3---3---3--(3)----|--(3)-------------|
|--3---3---3--(3)----|--(3)--------|--3---3---3--(3)----|--(3)-------------|
|
|  E.  E.  E  +H        +W            E.  E.  E  +H        +Q    +Q   H
|--------------------|-------------|--------------------|------------------|
|--------------------|-------------|--------------------|------------------|
|-17--17--16-(16)----|-(16)--------|-16--17--14-(14)----|-(14)--(14)S=9----|
|--x---x---x---------|-------------|--x---x---x---------|-------------x----|
|-15--15--14-(14)----|-(14)--------|-14--15--12-(12)----|-(12)--(12)S=7----|
|--------------------|-------------|--------------------|------------------|


  F5
   W           +W
|-----------|---------*|
|-----------|---------*|
|-----------|---------*|
|--3--------|--(3)----*|
|--3--------|--(3)----*|
|--3--------|--(3)----*|
|
|  W           +W
|-----------|---------*|
|-----------|---------*|
|-10--------|-(10)----*|
|--x--------|---------*|
|--8--------|--(8)----*|
|-----------|---------*|




--------------------------------------------------------------------------------


Duration Legend
---------------
W - whole; H - half; Q - quarter; E - 8th; S - 16th; T - 32nd; X - 64th; a - acciaccatura
+ - note tied to previous; . - note dotted; .. - note double dotted
Uncapitalized letters represent notes that are staccato (1/2 duration)
Irregular groupings are notated above the duration line
Duration letters will always appear directly above the note/fret number it represents the
duration for.  Duration letters with no fret number below them represent rests.  Multi-
bar rests are notated in the form Wxn, where n is the number of bars to rest for.  Low
melody durations appear below the staff

Tablature Legend
----------------
 h   - hammer-on
 p   - pull-off
 b   - bend
 pb  - pre-bend
 r   - bend release (if no number after the r, then release immediately)
 /\  - slide into or out of (from/to "nowhere")
 s   - legato slide
 S   - shift slide
 - natural harmonic
[n]  - artificial harmonic
n(n) - tapped harmonic
 ~   - vibrato
 tr  - trill
 T   - tap
 TP  - trem. picking
 PM  - palm muting
\n/  - tremolo bar dip; n = amount to dip
 \n  - tremolo bar down
 n/  - tremolo bar up
/n\  - tremolo bar inverted dip
 =   - hold bend; also acts as connecting device for hammers/pulls
 <> - volume swell (louder/softer)
 x   - on rhythm slash represents muted slash
 o   - on rhythm slash represents single note slash

Misc Legend
-----------
 |  - bar
||  - double bar
||o - repeat start
o|| - repeat end
*|  - double bar (ending)
 :  - bar (freetime)
 $  - Segno
 &  - Coda
Tempo markers -  = BPM(8/16=s8/s16), where s8 = swing 8ths, s16 = swing 16ths
Tap to rate this tab
 
# A B C D E F G H I J K L M N O P Q R S T U V W X Y Z