Song name
# A B C D E F G H I J K L M N O P Q R S T U V W X Y Z

Thrice - The Image Of The Invisible tab

The other tab was kinda maybe close- but this is how the song goes.
I also transposed it so you can play in Drop D- If you don't want to tune all the down to Drop C

-------------------------------------------------------------------------------
	   The Image of the Invisible-Thrice
-------------------------------------------------------------------------------
Tabbed by:Daniel Gizinski
Email:dantheman1175@aol.com

Tuning: Drop D
Guitar 1 w/distortion
Guitar 2 w/ distortion

Intro- (after morse code)
e|-----------------------------------------------------------------------------------|
B|-----------------------------------------------------------------------------------|
G|---12-12-12-12-12-12-12-12-12-12-12-12-12-12-12-12-8-8-8-8-8-8-8-5-5-5-5-5-5-5-5---|
D|---x--x--x--x--x--x--x--x--x--x--x--x--x--x--x--x-x-x-x-x-x-x-x-x-x-x-x-x-x-x-x-x--|
A|--10-10-10-10-10-10-10-10-10-10-10-10-10-10-10-10-6-6-6-6-6-6-6-6-3-3-3-3-3-3-3-3--|
E|-----------------------------------------------------------------------------------|
Two times for intro, four for the first verse.

Guitar 2 first verse
e|-------|
B|-------|
G|-------|
D|--5~---|
A|--5-~--|
E|--5~---|  x4 at the start of every measure

Chorus
Guitar one.
e|----------------------------------|
B|----------------------------------|
G|----------------------------------|
D|-1-1-1-1-1-1-1-1-5-5-5-5-3-3-3-3--|
A|-1-1-1-1-1-1-1-1-5-5-5-5-3-3-3-3--|
E|-1-1-1-1-1-1-1-1-5-5-5-5-3-3-3-3--|x4
Lead Riff to Chorus
e|------15--18----20-20b(22)-18-15-17-17b--|
B|---15---15--15---------------------------|
G|-15-----------15-------------------------|
D|-----------------------------------------|
A|-----------------------------------------|
E|-----------------------------------------|
x4

e|---------------------------|
B|---------------------------|
G|---------------------------|
D|---------------------------|
A|---------------------------|
E|-1-1-1-1-5-5-3-5-5-55-3-1--|
Verse two is the same as verse one without Guitar 2.
Chorus.
Intelude- Outline verse chords- w/o distortion
Then back to verse and then Chorus again


| /  slide up
| \  slide down
| h  hammer-on
| p  pull-off
| ~  let ring
| +  harmonic
| x  Mute note
===============================================================================

This is a great song off of a great album- pick it up when you have the chance.
Tap to rate this tab
# A B C D E F G H I J K L M N O P Q R S T U V W X Y Z