Song name
# A B C D E F G H I J K L M N O P Q R S T U V W X Y Z

Thrice - Earth Will Shake tab

The Earth Will Shake
Thrice
Vheissu
Drop AADGBe (Sounds like it was recorded with a seven string- IDK)

   Intro
    Moderately Slow Rock Q=65
    Dm
   4/4
    Gtr I
     Q  E S S S S E E S S   Q  E S S S S E E S S
||--^1--1---1---1-1-1-1-1-|-1--1---1---1-1-1-1-0-|
||o-^3--3---3---3-3-3-3-3-|-3--3---3---3-3-3-3-0-|
||--^2--2-2---2---2-2-2-2-|-2--2-2---2---2-2-2-0-|
||--^0--0-0---0---0-0-0-0-|-0--0-0---0---0-0-0-0-|
||o-----------------------|----------------------|
||------------------------|----------------------|


  Am
  E. S S S E +S  S S S S  S  S S   E. S S S E +S  S S S S  S  S S
|-0--0-0-0-0-(0)-0-0-0-0-(0)-0-0-|-0--0-0-0-0-(0)-0-0-0-0-(0)-0-0---||
|-1--1-1-1-1-(1)-1-1-1-1-(1)-1-1-|-1--1-1-1-1-(1)-1-1-1-1-(1)-1-1--o||
|-2--2-2-2-2-(2)-2-2-2-0h=2--2-2-|-2--2-2-2-2-(2)-2-2-2-0h=2--2-2---||
|-2--2-2-2-2-(2)-2-2-2-2-(2)-2-2-|-2--2-2-2-2-(2)-2-2-2-2-(2)-2-2---||
|-0--0-0-0-0-(0)-0-0-0-0-(0)-0-0-|-0--0-0-0-0-(0)-0-0-0-0-(0)-0-0--o||
|--------------------------------|----------------------------------||


 Verse
  D5                          D6
  Gtrs II, III
  E S S E S S S S E S S S S   E S S E S S S S E S S S S
|---------------------------|----------------------------|
|---------------------------|----------------------------|
|-7-7-7-7-7-7-7-7-7-7-7-7-7-|-7-7-7-7-7-7-7-7-7-7-7-7-7--|
|-7-7-7-7-7-7-7-7-7-7-7-7-7-|-9-9-9-9-9-9-9-9-9-9-9-9-9--|
|-5-5-5-5-5-5-5-5-5-5-5-5-5-|-5-5-5-5-5-5-5-5-5-5-5-5-5--|
|-5-5-5-5-5-5-5-5-5-5-5-5-5-|-5-5-5-5-5-5-5-5-5-5-5-5-5--|


  Am
     PM      PM  PM--|   PM     PM      PM  PM--|   PM
  Q  E E +S  S S S S S S S   Q  E E +S  S S S S S S S
|--------------------------|--------------------------|
|------5-(5)---5-------5---|------5-(5)---5-------5---|
|-5----5-(5)---5-------5---|-5----5-(5)---5-------5---|
|-7----7-(7)-7-7-7-7-7-7-7-|-7----7-(7)-7-7-7-7-7-7-7-|
|-0--0-0-(0)-0-0-0-0-0-0-0-|-0--0-0-(0)-0-0-0-0-0-0-0-|
|-0--0-0-(0)-0-0-0-0-0-0-0-|-0--0-0-(0)-0-0-0-0-0-0-0-|


  D5
  Gtr II
   E     S  S E     S  S  S  S  E    S  S  S  S
|-----------------------------------------------|
|-----------------------------------------------|
|--7-----7--7-7-----7--7--7--7--7----7--7--7--7-|
|--7-----7--7-7-----7--7--7--7--7----7--7--7--7-|
|--5-----5--5-5-----5--5--5--5--5----5--5--5--5-|
|--5-----5--5-5-----5--5--5--5--5----5--5--5--5-|
|
| Gtr III
|  S  S  S  S S  S  S  S  S  S  S  S S  S  S  S
|-------------0----------------------0----------|
|----------10-----------------------------------|
|-------10------10----10-------10------10----10-|
|-10h12------------12----10h12----12------12----|
|-----------------------------------------------|
|-----------------------------------------------|


  D6
   E     S  S E     S  S   S  S  E     S S  S  S
|------------------------------------------------|
|------------------------------------------------|
|--7-----7--7-7-----7--7---7--7--7-----7-7--7--7-|
|--9-----9--9-9-----9--9---9--9--9-----9-9--9--9-|
|--5-----5--5-5-----5--5---5--5--5-----5-5--5--5-|
|--5-----5--5-5-----5--5---5--5--5-----5-5--5--5-|
|
|  S  S  S  S S  S  S  S  +S  S  S  S  S S  S  S
|-------------0---------------0----------0-------|
|---------------------13-(13)------10------------|
|-------10------10--------------10----10------10-|
|-10h12----12------12----------------------12----|
|------------------------------------------------|
|------------------------------------------------|


  Am
  Gtrs II, III
     PM      PM  PM--|   PM     PM      PM  PM--|   PM
  Q  E E +S  S S S S S S S   Q  E E +S  S S S S S S S
|--------------------------|--------------------------||
|------5-(5)---5-------5---|------5-(5)---5-------5---||
|-5----5-(5)---5-------5---|-5----5-(5)---5-------5---||
|-7----7-(7)-7-7-7-7-7-7-7-|-7----7-(7)-7-7-7-7-7-7-7-||
|-0--0-0-(0)-0-0-0-0-0-0-0-|-0--0-0-(0)-0-0-0-0-0-0-0-||
|-0--0-0-(0)-0-0-0-0-0-0-0-|-0--0-0-(0)-0-0-0-0-0-0-0-||


   Chorus
    Am                Am7         Asus4             Amadd6
   7/8
              PM----|         PM            PM----|         PM
    S S S S S S S S S S S S S S   S S S S S S S S S S S S S S   3x
||--5-5-5-5-5---------5-5-5-5---|-5-5-5-5-5---------8-8-8-8-----||
||o-5-5-5-5-5---------8-8-8-8---|-5-5-5-5-5---------6-6-6-6----o||
||--5-5-5-5-5---------5-5-5-5---|-7-7-7-7-7---------5-5-5-5-----||
||--7-7-7-7-7---------7-7-7-7---|-7-7-7-7-7---------7-7-7-7-----||
||o-0-0-0-0-0-0-0-0-0-0-0-0-0-0-|-0-0-0-0-0-0-0-0-0-0-0-0-0-0--o||
||--0-0-0-0-0-0-0-0-0-0-0-0-0-0-|-0-0-0-0-0-0-0-0-0-0-0-0-0-0---||


  Am                Am7         Asus4             Amadd6
                               4/4
            PM----|         PM            PM----|
  S S S S S S S S S S S S S S   S S S S S S S S S S S S S S S S
|-5-5-5-5-5---------5-5-5-5---|-5-5-5-5-5---------8-8-8-8-8-8---||
|-5-5-5-5-5---------8-8-8-8---|-5-5-5-5-5---------6-6-6-6-6-6---||
|-5-5-5-5-5---------5-5-5-5---|-7-7-7-7-7---------5-5-5-5-5-5---||
|-7-7-7-7-7---------7-7-7-7---|-7-7-7-7-7---------7-7-7-7-7-7-7-||
|-0-0-0-0-0-0-0-0-0-0-0-0-0-0-|-0-0-0-0-0-0-0-0-0-0-0-0-0-0-0-0-||
|-0-0-0-0-0-0-0-0-0-0-0-0-0-0-|-0-0-0-0-0-0-0-0-0-0-0-0-0-0-0-0-||


 Verse
  D5                                D6
  Gtr II
  E   S S E   S S S S E   S S S S   E   S S E   S S  S S E    S S  S S
|---------------------------------|------------------------------------|
|---------------------------------|------------------------------------|
|-7---7-7-7---7-7-7-7-7---7-7-7-7-|-7---7-7-7---7-7--7-7-7----7-7--7-7-|
|-7---7-7-7---7-7-7-7-7---7-7-7-7-|-9---9-9-9---9-9--9-9-9----9-9--9-9-|
|-5---5-5-5---5-5-5-5-5---5-5-5-5-|-5---5-5-5---5-5--5-5-5----5-5--5-5-|
|-5---5-5-5---5-5-5-5-5---5-5-5-5-|-5---5-5-5---5-5--5-5-5----5-5--5-5-|
|
| Gtr III
| S S S S S S S S S S S S S S S S   S S S S S S S S  S S S  S S S  S S
|---------------------------------|------------------8------8------8---|
|---------------------------------|-----------------10-----10-----10---|
|-7-7-7-7-7-5-5-5-5-9-9-9-9-7-7-7-|-7-7-7-7-7-7-7-7--7-7-7----7-7----7-|
|-x-x-x-x-x-x-x-x-x-x-x-x-x-x-x-x-|-9-9-9-9-9-9-9-9--9-9-9----9-9----9-|
|-5-5-5-5-5-3-3-3-3-7-7-7-7-5-5-5-|------------------------------------|
|---------------------------------|------------------------------------|


  Am
 6/8
   S S     S  S  S S  S S     S  S  S S    S S     S  S  S S  S S     S  S S S
|---------------------------------------|--------------------------------------|
|--5-5-----5--5--5----5-5-----5--5--5---|--5-5-----5--5--5----5-5-----5--5-5-5-|
|--5-5-----5--5--5----5-5-----5--5--5---|--5-5-----5--5--5----5-5-----5--5-5-5-|
|--7-7-----7--7--7----7-7-----7--7--7---|--7-7-----7--7--7----7-7-----7--7-7-7-|
|--0-0-----0--0--0----0-0-----0--0--0---|--0-0-----0--0--0----0-0-----0--0-0-0-|
|--0-0-----0--0--0----0-0-----0--0--0---|--0-0-----0--0--0----0-0-----0--0-0-0-|
|
|  S S  a  S  S  S S  S S  a  S  S  S S    S S  a  S  S  S S  S S  a  S  S S S
|---------------------------------------|--------------------------------------|
|---------------------------------------|--------------------------------------|
|---------------12-0---------------11-0-|---------------10-0---------------9-0-|
|------------10-----------------10------|------------10-----------------10-----|
|-12-0-10h12---------12-0-10h12---------|-12-0-10h12---------12-0-10h12--------|
|---------------------------------------|--------------------------------------|


  D5
 4/4
  E   S S E   S S S S E   S  S  S  S
|------------------------------------|
|------------------------------------|
|-7---7-7-7---7-7-7-7-7---7--7--7--7-|
|-7---7-7-7---7-7-7-7-7---7--7--7--7-|
|-5---5-5-5---5-5-5-5-5---5--5--5--5-|
|-5---5-5-5---5-5-5-5-5---5--5--5--5-|
|
| S S S S S S S S S S S S S  S  S  S
|------------------------------------|
|------------------------------------|
|-7-7-7-7-7s5-5-5-5s9-9-9-9s10-10-10-|
|-x-x-x-x-x---x-x-x---x-x-x-----x--x-|
|-5-5-5-5-5s3-3-3-3s7-7-7-7s=8--8--8-|
|------------------------------------|


  D6
   E     S  S  E     S  S  S  S  E     S  S S  S
|---------------------------------------------------||
|---------------------------------------------------||
|--7-----7--7--7-----7--7--7--7--7-----7--7-7--7----||
|--9-----9--9--9-----9--9--9--9--9-----9--9-9--9----||
|--5-----5--5--5-----5--5--5--5--5-----5--5-5--5----||
|--5-----5--5--5-----5--5--5--5--5-----5--5-5--5----||
|
|  S  S  S  S  S  S  S  S  S  S  S  S  S  S S +S
|--8--8--8--8--8--8--8--8--8--8--8--8--8--8---------||
|-10-10-10-10-10-10-10-10-10-10-10-10-10-10---------||
|--7--7--7--7--7--7--7--7--7--7--7--7--7--7---------||
|--9--9--9--9--9--9--9--9--9--9--9--9--9--9-2-(2)S==||
|---------------------------------------------------||
|---------------------------------------------------||


 Guitar Break
  N.C.
   E     E        Q   +S   S S  S S  S  S  S
|--------------------------------------------|
|--------------------------------------------|
|-----------------9---(9)-10p9---------------|
|--7-----7---------------------10p9h10s12----|
|-----------------------------------------10s|
|--------------------------------------------|
|
|  S  S  S  S  a  H.
|--------------------------------------------|
|--------------------------------------------|
|--------------------------------------------|
|-10-12-10-----------------------------------|
|----------10-10h12--------------------------|
|--------------------------------------------|


    E  E  Q   +S   S S  S S  S  S  S
|------------------------------------|
|------------------------------------|
|--------10--(10)-10p9---------------|
|----------------------10p9h10s12----|
|---8--8--------------------------10-|
|------------------------------------|
|
|   >
|  +W
|------------------------------------|
|------------------------------------|
|------------------------------------|
|------------------------------------|
|-(12)-------------------------------|
|------------------------------------|


  N.C.
  Gtr II
  E E Q  +S   S S  S S  S  S  S   E E  Q  S S S a S S S E
|-------------------------------|-------------------------|
|-------------------------------|-------------------------|
|-----9--(9)-10p9---------------|-----10--5---5-5h7-5-----|
|-7-7-------------10p9h10s12----|---------5h7---------7-5-|
|----------------------------10s|=8-8---------------------|
|-------------------------------|-------------------------|


  N.C.
  E E Q  +S   S S  S S  S  S  S   E E  Q   +S   S S  S S  S  S  S
|-------------------------------|---------------------------------|
|-------------------------------|---------------------------------|
|-----9--(9)-10p9---------------|-----10--(10)-10p9---------------|
|-7-7-------------10p9h10s12----|-------------------10p9h10s12----|
|----------------------------10s|=8-8--------------------------10-|
|-------------------------------|---------------------------------|


  N.C.
  E E Q  +S   S S  S S  S  S  S   E E  Q  S S S S S S S +S
|-------------------------------|----------------------------||
|-------------------------------|----------------------------||
|-----9--(9)-10p9---------------|-----10--5---5-5---5--------||
|-7-7-------------10p9h10s12----|---------5h7---5h7---7-(7)\-||
|----------------------------10s|=8-8------------------------||
|-------------------------------|----------------------------||


 Interlude
  Am            Dmadd6        Am            Dmadd6   N.C.
  Gtr II
  E E H.        E E H.        E E H.        E E H    S  S S +S
|-------------|-------------|-------------|----------------------|
|-----5-------|-----6-------|-----5-------|-----6----------------|
|-----5-------|-----7-------|-----5-------|-----7---------5-(5)\-|
|-----7-------|-----9-------|-----7-------|-----9----5h=7--------|
|-0-0-0-------|-5-5-5-------|-0-0-0-------|-5-5-5----------------|
|-0-0-0-------|-5-5-5-------|-0-0-0-------|-5-5-5----------------|
|
| Gtr IV
|     ~~~~~~~~~~~~~~~~~~~~~~~~~~~~~~~~~~~~~~~~~~~~
| Q   H.        Q   H.        Q   H.        Q   H    S  S S  S
|-----8-------|-----5-------|-----8-------|-----5----8-10-8-10---|
|-----5-------|-----6-------|-----5-------|-----6----------------|
|-----5-------|-----4-------|-----5-------|-----4----------------|
|-----7-------|-----7-------|-----7-------|-----7----------------|
|-------------|-------------|-------------|----------------------|
|-------------|-------------|-------------|----------------------|


  Am            Dmadd6        Am                      Dmadd6   N.C.
  E E H.        E E H.        E E H.                  E E H    S  S S +S
|-------------|-------------|-----------------------|----------------------||
|-----5-------|-----6-------|-----5-----------------|-----6----------------||
|-----5-------|-----7-------|-----5-----------------|-----7---------5-(5)\-||
|-----7-------|-----9-------|-----7-----------------|-----9----5h=7--------||
|-0-0-0-------|-5-5-5-------|-0-0-0-----------------|-5-5-5----------------||
|-0-0-0-------|-5-5-5-------|-0-0-0-----------------|-5-5-5----------------||
|
|     ~~            ~~            ~~~~~~~~  ~     ~       ~
| Q   H.        Q   H.        Q   Q   +S  S E S S E   Q   H    S  S S  S
|-----8-------|-----5-------|-----8---(8)-----------|-----5----8-10-8-10---||
|-----5-------|-----6-------|-----5---(5)-5-8-5-----|-----6----------------||
|-----5-------|-----4-------|-----5---(5)-------7-5-|-----4----------------||
|-----7-------|-----7-------|-----7---(7)-----------|-----7----------------||
|-------------|-------------|-----------------------|----------------------||
|-------------|-------------|-----------------------|----------------------||


 Breakdown
  N.C.
  Gtrs II, III
  Wx8
|--------||
|--------||
|--------||
|--------||
|--------||
|--------||


   Chorus
    Am                Am7         Asus4             Amadd6
   7/8
              PM----|         PM            PM----|         PM
    S S S S S S S S S S S S S S   S S S S S S S S S S S S S S   3x
||--5-5-5-5-5---------5-5-5-5---|-5-5-5-5-5---------8-8-8-8-----||
||o-5-5-5-5-5---------8-8-8-8---|-5-5-5-5-5---------6-6-6-6----o||
||--5-5-5-5-5---------5-5-5-5---|-7-7-7-7-7---------5-5-5-5-----||
||--7-7-7-7-7---------7-7-7-7---|-7-7-7-7-7---------7-7-7-7-----||
||o-0-0-0-0-0-0-0-0-0-0-0-0-0-0-|-0-0-0-0-0-0-0-0-0-0-0-0-0-0--o||
||--0-0-0-0-0-0-0-0-0-0-0-0-0-0-|-0-0-0-0-0-0-0-0-0-0-0-0-0-0---||


  Am                Am7         Asus4             Amadd6
                               4/4
            PM----|         PM            PM----|
  S S S S S S S S S S S S S S   S S S S S S S S S S S S S S S S
|-5-5-5-5-5---------5-5-5-5---|-5-5-5-5-5---------8-8-8-8-8-8---||
|-5-5-5-5-5---------8-8-8-8---|-5-5-5-5-5---------6-6-6-6-6-6---||
|-5-5-5-5-5---------5-5-5-5---|-7-7-7-7-7---------5-5-5-5-5-5---||
|-7-7-7-7-7---------7-7-7-7---|-7-7-7-7-7---------7-7-7-7-7-7-7-||
|-0-0-0-0-0-0-0-0-0-0-0-0-0-0-|-0-0-0-0-0-0-0-0-0-0-0-0-0-0-0-0-||
|-0-0-0-0-0-0-0-0-0-0-0-0-0-0-|-0-0-0-0-0-0-0-0-0-0-0-0-0-0-0-0-||


   Bridge
    N.C.        Asus2         Am          Asus4
   6/8
    S S S S S S S S S S S S   S S S S S S S S S S S S
||--------------------------|--------------------------||
||o-------------------------|-------------------------o||
||--------------4-4-4-4-4---|-5-5-5-5-5---7-7-7-7-7----||
||--7-7-7-7-7---7-7-7-7-7---|-7-7-7-7-7---7-7-7-7-7----||
||o-0-0-0-0-0---0-0-0-0-0---|-0-0-0-0-0---0-0-0-0-0---o||
||--0-0-0-0-0---0-0-0-0-0---|-0-0-0-0-0---0-0-0-0-0----||


   Outro
    N.C.               Asus2
    Gtr II
     S S     S  S  S S  S S     S  S  S S
||----------------------------------------|
||o---------------------------------------|
||----------------------4-4-----4--4--4---|
||---7-7-----7--7--7----7-7-----7--7--7---|
||o--0-0-----0--0--0----0-0-----0--0--0---|
||---0-0-----0--0--0----0-0-----0--0--0---|
|
|   Gtr III
|    S S  a  S  S  S S  S S  a  S  S  S S
||----------------------------------------|
||o---------------------------------------|
||----------------12-0---------------10-0-|
||-------------10-----------------10------|
||o-12-0-10h12---------12-0-10h12---------|
||----------------------------------------|


  Am                 Asus4
   S S     S  S  S S  S S     S  S  S S  3x
|----------------------------------------||
|---------------------------------------o||
|--5-5-----5--5--5----7-7-----7--7--7----||
|--7-7-----7--7--7----7-7-----7--7--7----||
|--0-0-----0--0--0----0-0-----0--0--0---o||
|--0-0-----0--0--0----0-0-----0--0--0----||
|
|  S S  a  S  S  S S  S S  a  S  S  S S  3x
|----------------------------------------||
|---------------------------------------o||
|---------------12-0---------------10-0--||
|------------10-----------------10-------||
|-12-0-10h12---------12-0-10h12---------o||
|----------------------------------------||


  N.C.               Asus2
   S S     S  S  S S  S S     S  S  S S
|---------------------------------------|
|---------------------------------------|
|---------------------4-4-----4--4--4---|
|--7-7-----7--7--7----7-7-----7--7--7---|
|--0-0-----0--0--0----0-0-----0--0--0---|
|--0-0-----0--0--0----0-0-----0--0--0---|
|
|  S S  a  S  S  S S  S S  a  S  S  S S
|---------------------------------------|
|---------------------------------------|
|---------------12-0---------------10-0-|
|------------10-----------------10------|
|-12-0-10h12---------12-0-10h12---------|
|---------------------------------------|



  Am                 Asus2add6
   S S     S  S  S S  S S     S  S  S  S
|----------------------------------------*|
|---------------------6-6-----6--6--6\---*|
|--5-5-----5--5--5----4-4-----4--4--4\---*|
|--7-7-----7--7--7----7-7-----7--7--7\---*|
|--0-0-----0--0--0----0-0-----0--0--0----*|
|--0-0-----0--0--0----0-0-----0--0--0----*|
|
|  S S  a  S  S  S S  S S  a  S  S  S  S
|----------------------------------------*|
|----------------------------------------*|
|---------------12-0---------------10--0-*|
|------------10-----------------10-------*|
|-12-0-10h12---------12-0-10h12----------*|
|----------------------------------------*|

Tap to rate this tab
# A B C D E F G H I J K L M N O P Q R S T U V W X Y Z