Song name
# A B C D E F G H I J K L M N O P Q R S T U V W X Y Z

Thrice - Like Moths To Flame tab

E = Eleventh Fret
T = Twelfth Fret

Teppei Teranishi - Piano Intro  (post later)


Dustin Kensrue: Guitar 1 and Teppei Teranishi: Guitar 2 - Intro
D --------------------------------------------------------------------|
A --------------------------------------------------------------------|
E --------------------------------------------------------------------|
B 7000--7000--700-5-5-5-5-888-888--7000--7000--700-5-5-5-5-1---3------|
F#7000--7000--700-5-5-5-5-888-888--7000--7000--700-5-5-5-5-1---3------|
B 7000--7000--700-5-5-5-5-888-888--7000--7000--700-5-5-5-5-1---3------|

D --------------------------------------------------------------------|
A --------------------------------------------------------------------|
E --------------------------------------------------------------------|
B 7000--7000--700-5-5-5-5-888-88---7000--7000--700-5-5-5-5-1---3---0--|
F#7000--7000--700-5-5-5-5-888-88---7000--7000--700-5-5-5-5-1---3---0--|
B 7000--7000--700-5-5-5-5-888-88---7000--7000--700-5-5-5-5-1---3---0--|


Dustin Kensrue: Acoustic and Teppei Teranishi: Sound FX  (post later)


Dustin and Teppei
  I---              I will follow you		     and lay down my life
D --------------------------------------------------------------------|
A --------------------------------------------------------------------|
E --------------------------------------------------------------------|
B 7000--7000--700-5-5-5-5-888-888--7000--7000--700-8-8-8-8-5-5-5-5----|
F#7000--7000--700-5-5-5-5-888-888--7000--7000--700-8-8-8-8-5-5-5-5----|
B 7000--7000--700-5-5-5-5-888-888--7000--7000--700-8-8-8-8-5-5-5-5----|

D --------------------------------------------------------------------|
A --------------------------------------------------------------------|
E --------------------------------------------------------------------|
B 7000--7000--700-5-5-5-5-888-88---7000--7000--700-5-5-5-5-3-3-2-2-0--|
F#7000--7000--700-5-5-5-5-888-88---7000--7000--700-5-5-5-5-3-3-2-2-0--|
B 7000--7000--700-5-5-5-5-888-88---7000--7000--700-5-5-5-5-3-3-2-2-0--|


Teppei Teranishi: Filler w/ lots of Reverb  (post later)


Dustin Kensrue: Acoustic and Teppei Teranishi: Sound FX  (post later)


Dustin and Teppei
 I---               I will follow you		      and lay down my life
D --------------------------------------------------------------------|
A --------------------------------------------------------------------|
E --------------------------------------------------------------------|
B 7000--7000--700-5-5-5-5-888-888--7000--7000--700-8-8-8-8-5-5-5-5----|
F#7000--7000--700-5-5-5-5-888-888--7000--7000--700-8-8-8-8-5-5-5-5----|
B 7000--7000--700-5-5-5-5-888-888--7000--7000--700-8-8-8-8-5-5-5-5----|

D --------------------------------------------------------------------|
A --------------------------------------------------------------------|
E --------------------------------------------------------------------|
B 7000--7000--700-5-5-5-5-888-88---7000--7000--700-5-5-5-5-3-3-2-2-0--|
F#7000--7000--700-5-5-5-5-888-88---7000--7000--700-5-5-5-5-3-3-2-2-0--|
B 7000--7000--700-5-5-5-5-888-88---7000--7000--700-5-5-5-5-3-3-2-2-0--|


Piano Filler


Outro: Dustin

D --------------------------------------------------------------------|
A --------------------------------------------------------------------|
E --------------------------------------------------------------------|
B 700770700770E00EE0E00EE0800880800880T0000TT0000---------------------|
F#700770700770E00EE0E00EE0800880800880T0000TT0000---------------------|
B 700770700770E00EE0E00EE0800880800880T0000TT0000---------------------|

D --------------------------------------------------------------------|
A --------------------------------------------------------------------|
E --------------------------------------------------------------------|
B 700770700770E00EE0E00EE0800880800880T0000TT000000-fade out----------|
F#700770700770E00EE0E00EE0800880800880T0000TT000000-fade out----------|
B 700770700770E00EE0E00EE0800880800880T0000TT000000-fade out----------|
Tap to rate this tab
# A B C D E F G H I J K L M N O P Q R S T U V W X Y Z