Song name
# A B C D E F G H I J K L M N O P Q R S T U V W X Y Z

Thrice - Music Box tab

Help us improve GuitareTab! Take a short survey!
-----------------------------------------------------------------------------------------------
                                     Thrice-Music Box
-----------------------------------------------------------------------------------------------
Tabbed by-Chris Thomas
Email-cct6869@hotmail.com

Tunning-Drop C

i will have teppei's guitar later on this week.

Figure Out Stumming On All These

Dustin Kensrue- Rhythm Guitar

Inrto: The Music Box
D|--------------------------------------------------------------------------------------------|
A|--------------------------------------------------------------------------------------------|
F|--------------------------------------------------------------------------------------------|
C|-0-0-0-0-0-0-0-0-8-7-0-0-3-3-3-3-8-8-8-8-10-10-10-10-10-10-0-0-0-0-0-0-0-0-5-8-8--2-2-2-2-0~|
G|-0-0-0-0-0-0-0-0-8-7-0-0-3-3-3-3-8-8-8-8-8--8--8--8--8--8--0-0-0-0-0-0-0-0-7-8-10-4-4-4-4-0~|
C|-0-0-0-0-0-0-0-0-8-7-0-0-3-3-3-3-8-8-8-8-8--8--8--8--8--8--0-0-0-0-0-0-0-0-5-7-8--2-2-2-2-0~|

Verse: no rhythm guitar in verse

Chorus:
D|-----------------------------------------------------------------|
A|-----------------------------------------------------------------|
F|-----------------------------------------------------------------|
C|-0-0-0-0-0-0-0-0-0-0-0-0-0-0-0-0-8-8-8-8-8-8-8-8-8-8-8-8-8-8-8-8-|
G|-0-0-0-0-0-0-0-0-0-0-0-0-0-0-0-0-8-8-8-8-8-8-8-8-8-8-8-8-8-8-8-8-|
C|-0-0-0-0-0-0-0-0-0-0-0-0-0-0-0-0-8-8-8-8-8-8-8-8-8-8-8-8-8-8-8-8-|

Chorus continued:
D|-----------------------------------------------|
A|-----------------------------------------------|
F|-----------------------------------------------|
C|-0-0-0-0-0-0-0-0-0-0-0-0-0-0-0-0-3---3---3---3-|
G|-0-0-0-0-0-0-0-0-0-0-0-0-0-0-0-0-3---3---3---3-|Then right here is 
C|-0-0-0-0-0-0-0-0-0-0-0-0-0-0-0-0-3---3---3---3-|Teppei's guitar

Chorus continued again:
D|---------------------------------------------------------------------------------------|
A|---------------------------------------------------------------------------------------|
F|---------------------------------------------------------------------------------------|
C|-0-0-0-0-0-0-0-0-0-0-0-0-0-0-0-0-8-8-8-8-8-8-8-8-8-8-8-8-8-8-8-8-8-7-7-7-7-7-7-7-7-7-7-|
G|-0-0-0-0-0-0-0-0-0-0-0-0-0-0-0-0-8-8-8-8-8-8-8-8-8-8-8-8-8-8-8-8-8-7-7-7-7-7-7-7-7-7-7-|
C|-0-0-0-0-0-0-0-0-0-0-0-0-0-0-0-0-8-8-8-8-8-8-8-8-8-8-8-8-8-8-8-8-8-7-7-7-7-7-7-7-7-7-7-|

Pre-Verse:(intro again)
D|-----------------------------------------------------------------------------------------|
A|-----------------------------------------------------------------------------------------|
F|-----------------------------------------------------------------------------------------|
C|-0-0-0-0-0-0-0-0-8-7-0-0-3-3-3-3-8-8-8-8-10-10-10-10-10-10-0-0-0-0-0-0-0-0-5-8-8--2-2-2-2|
G|-0-0-0-0-0-0-0-0-8-7-0-0-3-3-3-3-8-8-8-8-8--8--8--8--8--8--0-0-0-0-0-0-0-0-7-8-10-4-4-4-4|
C|-0-0-0-0-0-0-0-0-8-7-0-0-3-3-3-3-8-8-8-8-8--8--8--8--8--8--0-0-0-0-0-0-0-0-5-7-8--2-2-2-2|

Verse:No Rhythm guitar in this verse either

Chorus:
D|-----------------------------------------------------------------|
A|-----------------------------------------------------------------|
F|-----------------------------------------------------------------|
C|-0-0-0-0-0-0-0-0-0-0-0-0-0-0-0-0-8-8-8-8-8-8-8-8-8-8-8-8-8-8-8-8-|
G|-0-0-0-0-0-0-0-0-0-0-0-0-0-0-0-0-8-8-8-8-8-8-8-8-8-8-8-8-8-8-8-8-|
C|-0-0-0-0-0-0-0-0-0-0-0-0-0-0-0-0-8-8-8-8-8-8-8-8-8-8-8-8-8-8-8-8-|

Chorus continued:
D|-----------------------------------------------|
A|-----------------------------------------------|
F|-----------------------------------------------|
C|-0-0-0-0-0-0-0-0-0-0-0-0-0-0-0-0-3---3---3---3-|
G|-0-0-0-0-0-0-0-0-0-0-0-0-0-0-0-0-3---3---3---3-|Then right here is 
C|-0-0-0-0-0-0-0-0-0-0-0-0-0-0-0-0-3---3---3---3-|Teppei's guitar

Chorus continued again:
D|---------------------------------------------------------------------------------------|
A|---------------------------------------------------------------------------------------|
F|---------------------------------------------------------------------------------------|
C|-0-0-0-0-0-0-0-0-0-0-0-0-0-0-0-0-8-8-8-8-8-8-8-8-8-8-8-8-8-8-8-8-8-7-7-7-7-7-7-7-7-7-7-|
G|-0-0-0-0-0-0-0-0-0-0-0-0-0-0-0-0-8-8-8-8-8-8-8-8-8-8-8-8-8-8-8-8-8-7-7-7-7-7-7-7-7-7-7-|
C|-0-0-0-0-0-0-0-0-0-0-0-0-0-0-0-0-8-8-8-8-8-8-8-8-8-8-8-8-8-8-8-8-8-7-7-7-7-7-7-7-7-7-7-|

Breakdown:
D|----------------------------------------------------------------------|
A|----------------------------------------------------------------------|
F|----------------------------------------------------------------------|
C|-5~-------------------8~---------------------5~---------------------8~|
G|-5~-------------------8~---------------------5~---------------------8~|
C|-5~-------------------8~---------------------5~---------------------8~|

D|---------------------------------------------------------------------------|
A|---------------------------------------------------------------------------|
F|----10--9--10--5--5--7-----10--12--14--5--5--7-----------------------------|
C|-0----------------------0--------------------------------------------------|
G|-0--8---7--8---3--3--5--0--8---10--12--3--3--5-----------------------------|
C|-0----------------------0--------------------------------------------------|

D|---------------------------------------------------------------------------|
A|---------------------------------------------------------------------------|
F|----10--9--10--5--5--7-----10--5--5--5--5--7--7--7--7----------------------|
C|-0----------------------0------5--5--5--5--7--7--7--7----------------------|
G|-0--8---7--8---3--3--5--0--8---3--3--3--3--5--5--5--5----------------------|
C|-0----------------------0--------------------------------------------------|

D|---------------------------------------------------------------------------|
A|---------------------------------------------------------------------------|
F|----10--9--10--5--5--7-----10--12--14--5--5--7-----------------------------|
C|-0----------------------0--------------------------------------------------|
G|-0--8---7--8---3--3--5--0--8---10--12--3--3--5-----------------------------|
C|-0----------------------0--------------------------------------------------|

D|------------------------------|
A|------------------------------|
F|----10--9--10--5--5--7-----10-|
C|-0----------------------0-----|
G|-0--8---7--8---3--3--5--0--8--|
C|-0----------------------0-----|

Chorus:
Chorus:
D|-----------------------------------------------------------------|
A|-----------------------------------------------------------------|
F|-----------------------------------------------------------------|
C|-0-0-0-0-0-0-0-0-0-0-0-0-0-0-0-0-8-8-8-8-8-8-8-8-8-8-8-8-8-8-8-8-|
G|-0-0-0-0-0-0-0-0-0-0-0-0-0-0-0-0-8-8-8-8-8-8-8-8-8-8-8-8-8-8-8-8-|
C|-0-0-0-0-0-0-0-0-0-0-0-0-0-0-0-0-8-8-8-8-8-8-8-8-8-8-8-8-8-8-8-8-|

Chorus continued:
D|-----------------------------------------------|
A|-----------------------------------------------|
F|-----------------------------------------------|
C|-0-0-0-0-0-0-0-0-0-0-0-0-0-0-0-0-3---3---3---3-|
G|-0-0-0-0-0-0-0-0-0-0-0-0-0-0-0-0-3---3---3---3-|Then right here is 
C|-0-0-0-0-0-0-0-0-0-0-0-0-0-0-0-0-3---3---3---3-|Teppei's guitar

Chorus continued again:
D|---------------------------------------------------------------------------------------|
A|---------------------------------------------------------------------------------------|
F|---------------------------------------------------------------------------------------|
C|-0-0-0-0-0-0-0-0-0-0-0-0-0-0-0-0-8-8-8-8-8-8-8-8-8-8-8-8-8-8-8-8-8-7-7-7-7-7-7-7-7-7-7-|
G|-0-0-0-0-0-0-0-0-0-0-0-0-0-0-0-0-8-8-8-8-8-8-8-8-8-8-8-8-8-8-8-8-8-7-7-7-7-7-7-7-7-7-7-|
C|-0-0-0-0-0-0-0-0-0-0-0-0-0-0-0-0-8-8-8-8-8-8-8-8-8-8-8-8-8-8-8-8-8-7-7-7-7-7-7-7-7-7-7-|

D|-------------------------------------------------------|
A|-------------------------------------------------------|
F|-------------------------------------------------------|
C|-8-8-8-8-8-8-8-8-8-8-8-8-8-8-8-8-8-7-7-7-7-7-7-7-7-7-7-|
G|-8-8-8-8-8-8-8-8-8-8-8-8-8-8-8-8-8-7-7-7-7-7-7-7-7-7-7-|
C|-8-8-8-8-8-8-8-8-8-8-8-8-8-8-8-8-8-7-7-7-7-7-7-7-7-7-7-|

Ending(intro):
D|--------------------------------------------------------------------------------------------|
A|--------------------------------------------------------------------------------------------|
F|--------------------------------------------------------------------------------------------|
C|-0-0-0-0-0-0-0-0-8-7-0-0-3-3-3-3-8-8-8-8-10-10-10-10-10-10-0-0-0-0-0-0-0-0-5-8-8--2-2-2-2-0~|
G|-0-0-0-0-0-0-0-0-8-7-0-0-3-3-3-3-8-8-8-8-8--8--8--8--8--8--0-0-0-0-0-0-0-0-7-8-10-4-4-4-4-0~|
C|-0-0-0-0-0-0-0-0-8-7-0-0-3-3-3-3-8-8-8-8-8--8--8--8--8--8--0-0-0-0-0-0-0-0-5-7-8--2-2-2-2-0~|
Related for Music Box tab