Song name
# A B C D E F G H I J K L M N O P Q R S T U V W X Y Z

Thrice - All Thats Left Acoustic tab

Artist: Thrice
Song: All That's Left (Acoustic)

(I tabbed this out by watching the 24 hours video on thrice.net)

Tuning: CGCFAD

Intro (Both Guitars)
D---------------------------|
A---------------------------|
F---------------------------| x2  Figure Out Strumming
C-5~--3~--1~--3~------------|
G-5~--3~--1~--3~------------|
C-5~--3~--1~--3~------------|

Verse (Both Guitars)
-----------------------------------------------------------------|
-----------------------------------------------------------------|
--------12-12-12-12-12----------10-10-10-10-10---------8-8-8-8-8-|
-5-5----x--x--x--x--x----5-5----x--x--x--x--x---5-5----x-x-x-x-x-|
-5-5----10-10-10-10-10---5-5----8--8--8--8--8---5-5----6-6-6-6-6-|
-5-5---------------------5-5--------------------5-5--------------|

---------------------|
---------------------|
---------------------|
-5-5-3-3-5-5-3-3-----|
-5-5-3-3-5-5-3-3-----|
-5-5-3-3-5-5-3-3-----|

-----------------------------------------------------------------|
-----------------------------------------------------------------|
--------12-12-12-12-12----------10-10-10-10-10---------8-8-8-8-8-|
-5-5----x--x--x--x--x----5-5----x--x--x--x--x---5-5----x-x-x-x-x-|
-5-5----10-10-10-10-10---5-5----8--8--8--8--8---5-5----6-6-6-6-6-|
-5-5---------------------5-5--------------------5-5--------------|


------------------|
------------------|
------------------|
-8-8-8-8-7-7-7-7--|        whole verse x2
-5-5-5-5-5-5-5-5--|
-5-5-5-5-5-5-5-5--|

CHorus (Dustin)

--------------------------------------------------------------------------|
--------------------------------------------------------------------------|
--------------------------------------------------------------------------|
-1-----3-----5------1-----3-----5-5-3-3-5-5-3-3--8-----10-----1-----3-----|
-1-x8--3-x8--5-x16--1-x8--3-x8--5-5-3-3-5-5-3-3--8-x8--10-x8--1-x8--3-x8--|
-1-----3-----5------1-----3-----5-5-3-3-5-5-3-3--8-----10-----1-----3-----|

For the Chorus, instead of barring 8 and 10, you might find it easier to play the chords 
like this:

-----------|
-----------|
-3----5----|
-3----5----|
-1----3----|
-----------|


Verse (Both Guitars)
-----------------------------------------------------------------|
-----------------------------------------------------------------|
--------12-12-12-12-12----------10-10-10-10-10---------8-8-8-8-8-|
-5-5----x--x--x--x--x----5-5----x--x--x--x--x---5-5----x-x-x-x-x-|
-5-5----10-10-10-10-10---5-5----8--8--8--8--8---5-5----6-6-6-6-6-|
-5-5---------------------5-5--------------------5-5--------------|

---------------------|
---------------------|
---------------------|
-5-5-3-3-5-5-3-3-----|
-5-5-3-3-5-5-3-3-----|
-5-5-3-3-5-5-3-3-----|

-----------------------------------------------------------------|
-----------------------------------------------------------------|
--------12-12-12-12-12----------10-10-10-10-10---------8-8-8-8-8-|
-5-5----x--x--x--x--x----5-5----x--x--x--x--x---5-5----x-x-x-x-x-|
-5-5----10-10-10-10-10---5-5----8--8--8--8--8---5-5----6-6-6-6-6-|
-5-5---------------------5-5--------------------5-5--------------|


------------------|
------------------|
------------------|
-8-8-8-8-7-7-7-7--|        whole verse x2
-5-5-5-5-5-5-5-5--|
-5-5-5-5-5-5-5-5--|

Chorus

---------------------------------------------------------------------------|
---------------------------------------------------------------------------|
---------------------------------------------------------------------------|
-1-----3-----5------1-----3-----5-5-3-3-5-5-3-3--8-----10-----1------3-----|
-1-x8--3-x8--5-x16--1-x8--3-x8--5-5-3-3-5-5-3-3--8-x8--10-x8--1-x16--3-x8--|
-1-----3-----5------1-----3-----5-5-3-3-5-5-3-3--8-----10-----1------3-----|

-------------|
-------------|
-------------|    Dustin keeps strumming that last chord
-4----5~-----|    while Teppei does a bridge similar to
-4-x8-5~-----|	 the electric version:
-4----5~-----|


Bridge (Teppei)

-------------------------------------------------|
-------------------------------------------------|
-------------------------------------------------|
-------5-----------------------------------------|
---5---------5---8------5---6---5-5-3-3-5-5-3-3--|
-5---5-----5---5------5---5-----5-5-3-3-5-5-3-3--|
PM.  .     .   .      .   .     . . . . . . . .

-------------------------------------------------|
-------------------------------------------------|
-------------------------------------------------|
--------5----------------------------8-------7---|
---5---------5---8------5---6-----5----5---5---5-|
-5---5-----5---5------5---5-----5--------5-------|
PM.  .     .   .      .   .     .        .

2nd Half of Bridge (Teppei)

----------------------------------------------------------------|
----------------------------------------------------------------|
------12-12-12-12-12-------10-10-10-10-10-------8-8-8-8-8-------|  x4
-5-5--x--x--x--x--x---3-3--x--x--x--x--x---1-1--x-x-x-x-x--3----|
-5-5--10-10-10-10-10--3-3--8--8--8--8--8---1-1--6-6-6-6-6--3-x8-|
-5-5------------------3-3------------------1-1-------------3----|

2nd Half of Bridge (Dustin)

-----------------------------|
-----------------------------|
-----------------------------|   x4  On last time, strum last chord
-5------3------1------3------|        a little longer
-5-x-8--3-x-8--1-x-8--3-x-8--|
-5------3------1------3------|

Chorus (Both Guitars)

---------------------------------------------------------------------------|
---------------------------------------------------------------------------|
---------------------------------------------------------------------------|
-1-----3-----5------1-----3-----5-5-3-3-5-5-3-3--8-----10-----1------3-----|
-1-x8--3-x8--5-x16--1-x8--3-x8--5-5-3-3-5-5-3-3--8-x8--10-x8--1-x24--3-x8--|
-1-----3-----5------1-----3-----5-5-3-3-5-5-3-3--8-----10-----1------3-----|


--------------------------------------------------------|
--------------------------------------------------------|
--------------------------------------------------------|
-5------1-----3-----5-5-3-3-5-5-3-3--8-----10-----1-----|
-5-x16--1-x8--3-x8--5-5-3-3-5-5-3-3--8-x8--10-x8--1-x8--|
-5------1-----3-----5-5-3-3-5-5-3-3--8-----10-----1-----|

Outro (Both Guitars)

----------------------------------------------|
----------------------------------------------|
----------------------------------------------|
-1-----3-----1-----3-----1-----3-----4-----5~-|
-1-x8--3-x8--1-x8--3-x8--1-x8--3-x8--4-x8--5~-|
-1-----3-----1-----3-----1-----3-----4-----5~-|


Hope it helped.
Tap to rate this tab
# A B C D E F G H I J K L M N O P Q R S T U V W X Y Z