Song name
# A B C D E F G H I J K L M N O P Q R S T U V W X Y Z

Thrice - Come All You Weary tab

***note to the editor-i submitted htis tab onc ebefore but i mismarked a few things like 
string names and such which is probably why you didnt approve this tab before, please 
this again


okay i watched many a thrice video to get the EXACT fretting of this song.  it's not 
complete but ive been playing thrice for a long time so i am used to teppei's movements and style.


Chords to know
---------------
   Gm, Dm, B, B+2 (since i can't manage to figure out what the real name is)

d--0---0---0---0----|
a--1---1---1---3----|
F--2---0---0---0----|
C--2---2---2---4----|
G--0---2---3---5----|
D--0---0---0---0----|


D tuning
---------
p=pull off
h= hammer on
~= vibrato
/=slide


INTRO

Dustin:
d|------------------------------------------------------------------|
a|------------------------------------------------------------------|
F|------------------------------------------------------------------|
C|--2----2--2-2-----3----3--3-3-----2----2--2-2-----5----5--5-5-----|  X4
G|--2----2--2-2-----5----5--5-5-----3----3--3-3-----7----7--7-7-----|
D|--0----0--0-0-----0----0--0-0-----0----0--0-0-----0----0--0-0-----|


Teipei:
(on third repeat)
d|-----------------------------------------------------|
a|------3----3-3---3/5---------------------------------|
F|--2/4---4------------2~-----0-2/4/2-0----------------|
C|---------------------------------------2-------------|
G|-----------------------------------------------------|
D|-----------------------------------------------------|

d|-----------------------------------------------------|
a|------3----3-3---3/5-3~--------3---------------------|
F|--2/4---4-----------------2h4----4p2p0---------------|
C|----------------------------------------0h2h5---2~---|
G|-----------------------------------------------------|
D|-----------------------------------------------------|

VERSE 1
Dustin:
d|------------------------------------------------------------------|
a|------------------------------------------------------------------|
F|------------------------------------------------------------------|
C|--2----2--2-2-----3----3--3-3-----2----2--2-2-----5----5--5-5-----|  X2
G|--2----2--2-2-----5----5--5-5-----3----3--3-3-----7----7--7-7-----|
D|--0----0--0-0-----0----0--0-0-----0----0--0-0-----0----0--0-0-----|

d|------------------------------------------------------------------|
a|------------------------------------------------------------------|
F|------------------------------------------------------------------|
C|--2----2--2-2-----3----3--3-3-----2----2--2-2-----5----5--5-5-----|
G|--2----2--2-2-----5----5--5-5-----3----3--3-3-----7----7--7-7-----|
D|--0----0--0-0-----0----0--0-0-----0----0--0-0-----0----0--0-0-----|

d|------------------------------------------------------------------|
a|------------------------------------------------------------------|
F|------------------------------------------------------------------|
C|--2----2--2-2-----3----3--3-3-----2----2--2-2-----2----2--2-2-----|
G|--2----2--2-2-----5----5--5-5-----3----3--3-3-----2----2--2-2-----|
D|--0----0--0-0-----0----0--0-0-----0----0--0-0-----0----0--0-0-----|


INTERLUDE

Dustin:
d|------------------------------------------------------------------|
a|------------------------------------------------------------------|
F|------------------------------------------------------------------|
C|--2----2--2-2-----3----3--3-3-----2----2--2-2-----5----5--5-5-----|  X2
G|--2----2--2-2-----5----5--5-5-----3----3--3-3-----7----7--7-7-----|
D|--0----0--0-0-----0----0--0-0-----0----0--0-0-----0----0--0-0-----|

Teipei:
d|-----------------------------------------------------|
a|------3----3-3---3/5---------------------------------|
F|--2/4---4------4------2~-----0-2/4/2-0---------------|
C|---------------------------------------2-------------|
G|-----------------------------------------------------|
D|-----------------------------------------------------|

d|------------------------------------------------------|
a|------3----3-3---3/5-3~------------3------------------|
F|--2/4---4------4--------4p2p0--2h4---4p2p0------------|
C|-------------------------------------------0h2h5---2~-|
G|------------------------------------------------------|
D|------------------------------------------------------|

VERSE 2
Dustin:
d|------------------------------------------------------------------|
a|------------------------------------------------------------------|
F|------------------------------------------------------------------|
C|--2----2--2-2-----3----3--3-3-----2----2--2-2-----5----5--5-5-----|
G|--2----2--2-2-----5----5--5-5-----3----3--3-3-----7----7--7-7-----|
D|--0----0--0-0-----0----0--0-0-----0----0--0-0-----0----0--0-0-----|
Teipei:
d|------------------(12)---------------------------------------3--|
a|------------------(12)-----------------------------------2p4----|
F|------------------(12)------------------------------------------|
C|----------------------------------------------------------------|
G|----------------------------------------------------------------|
D|----------------------------------------------------------------|

Dustin:
d|------------------------------------------------------------------|
a|------------------------------------------------------------------|
F|------------------------------------------------------------------|
C|--2----2--2-2-----3----3--3-3-----2----2--2-2-----5----5--5-5-----|
G|--2----2--2-2-----5----5--5-5-----3----3--3-3-----7----7--7-7-----|
D|--0----0--0-0-----0----0--0-0-----0----0--0-0-----0----0--0-0-----|
Teipei (something to this effect):
d|-0---------0---------0---------0---------------------------------------|
a|-----3---3-----3---3-----3---3------3----------------------------------|
C|-------0---------0---------0----------0------------7/9-9-9/12-12/14----|
G|-----------------------------------------------------------------------|
D|-----------------------------------------------------------------------|

Dustin:
d|------------------------------------------------------------------|
a|------------------------------------------------------------------|
F|------------------------------------------------------------------|
C|--2----2--2-2-----3----3--3-3-----2----2--2-2-----2----2--2-2-----|
G|--2----2--2-2-----5----5--5-5-----3----3--3-3-----3----3--3-3-----|
D|--0----0--0-0-----0----0--0-0-----0----0--0-0-----0----0--0-0-----|
Teipei:
d|---------------------------------------------------------------------|
a|---------------------------------------------------------------------|
F|---------------------------------------------------------------------|
C|-14~-----------------9/12---12---------------------12--12--12-12/14--|
G|--------------------------14--12h14----14121414--14--14--------------|
D|---------------------------------------------------------------------|

Dustin:
d|------------------------------------------------------------------|
a|------------------------------------------------------------------|
F|------------------------------------------------------------------|
C|--2----2--2-2-----3----3--3-3-----2----2--2-2-----2----2--2-2-----|
G|--2----2--2-2-----5----5--5-5-----3----3--3-3-----2----2--2-2-----|
D|--0----0--0-0-----0----0--0-0-----0----0--0-0-----0----0--0-0-----|
Teipei:
d|-----------------(12)----------------|
a|-----------------(12)----------------|
F|-----------------(12)------------(7)-|
C|-14~-----------------------------(7)-|
G|---------------------------------(7)-|
D|-------------------------------------|


CHORUS

Gm        Dm   B
Come, all you weary
Gm          Dm    B
Come gather round near me
B +2
And find rest for your soul

INTERLUDE
VERSE 3 (Same as VERSE 2 excluding a few background notes of Teipei)
MODIFIED CHORUS

Gm        Dm   B
Come, all you weary
Gm          Dm    B
Come gather round near me
Gm        Dm   B
Come, all you weary
Gm          Dm    B
Come gather round near me
B +2
And find rest for your soul

OUTRO
Teipei:
d|---------------------------------------------|
a|---12----------------------------------------|
f|-------12-14--11--12----11-------------------|
C|---------------------14-----12h14------------|
G|---------------------------------------------|
D|---------------------------------------------|
Tap to rate this tab
 
# A B C D E F G H I J K L M N O P Q R S T U V W X Y Z