Song name
# A B C D E F G H I J K L M N O P Q R S T U V W X Y Z

Thrice - For Miles tab

----------------------------------------------------------------------------
                 For Miles-Thrice
album-Vheissu

This is a great song and it really shows off Thrice's creativness and talent. The bridge
this song is amazing.
This is my very first tab, but im pretty sure this is a correct way to play it. I'm not
sure which guitar really plays what, but i wrote down what i thought. You may have to
carefully for some of the strumming patterns.    Tuning  C-G-C-F-A-D      Please comment

Guitar I - Starts at:57
D|---------------------------------------------------------------------------|
A|---------------------------------------------------------------------------|
F|----------------------------------------------------------7-7-7-7-7-7------|
C|-2/5-5-5-5-5-5/7-7-7-7-7-7/9-9-9-9-9-9/11-11-11-12-12-12-------------------|
G|---------------------------------------------------------------------------|
C|---------------------------------------------------------------------------|

D|---------------------------------------------------------------------------|
A|---------------------------------------------------------------------------|
F|--9-9-9-9-9-9--------------------------------------------------------------|
C|-----------------12-11-12--5-5-5-5-5-5-7-7-7-7-7-7-9-9-9-9-9-9--11-9-8-----|
G|---------------------------------------------------------------------------|
C|---------------------------------------------------------------------------|
  guitar II  starts at :57

D|-7p0----7p0----7p0----7p0----7p0-----7p0------9p0-9p0-9p0-10p0-10p0-10p0-|
A|----8p0----8p0----8p0----8p0----8p0-----8p0------------------------------|
F|-------7------7------7------7-------7--------7---------------------------|
C|-------------------------------------------------------------------------|
G|-------------------------------------------------------------------------|
C|-------------------------------------------------------------------------|

D|-7p0----7p0----7p0----7p0-----5p0----5p0------9p0-9p0-9p0-10p0-10p0-10p0-|
A|----8p0----8p0----8p0----8p0-----8p0----8p0------------------------------|
F|-------7------7------7------7-------7------7-----------------------------|
C|-------------------------------------------------------------------------|
G|-------------------------------------------------------------------------|
C|-------------------------------------------------------------------------|

D|-7p0----7p0----7p0----7p0----7p0-----7p0-----7p0-----7p0-----------------|
A|----8p0----8p0----8p0----8p0----8p0-----8p0-----8p0-----8p0--------------|
F|-------7------7------7------7-------7-------7------7-------7---6-let ring|
C|-------------------------------------------------------------------------|
G|-------------------------------------------------------------------------|
C|-------------------------------------------------------------------------|
  chorus thing guitar I and II 1:29
{    Pm     }
D|-------------------------------------------------------------------------|
A|-------------------------------------------------------------------------|
F|-------------------------------------------------------------------------|
C|-444444444444--4-4-4-44-222-5--9-8-11-9---4-8-9-12--2-5-4----------------|
G|-444444444444--4-4-4-44-222-5--9-8-11-----4-8-9-12--2-5-4----------------|
C|-444444444444--4-4-4-44-222-5--9-8-11-----4-8-9-12--2-5-4----------------|

D|-------------------------------------------------------------------------|
A|-------------------------------------------------------------------------|
F|-------------------------------------------------------------------------|
C|---4-4-4-444--2-5--9-8-11-9--4-8-9-12--2-5-4-----------------------------|
G|---4-4-4-444--2-5--9-8-11----4-8-9-12--2-5-4-----------------------------|
C|---4-4-4-444--2-5--9-8-11----4-8-9-12--2-5-4-----------------------------|

guitar I - 2:12
D|---------------------------------------------------------------------------|
A|---------------------------------------------------------------------------|
F|----------------------------------------------------------7-7-7-7-7-7------|
C|-2/5-5-5-5-5-5/7-7-7-7-7-7/9-9-9-9-9-9/11-11-11-12-12-12-------------------|
G|---------------------------------------------------------------------------|
C|---------------------------------------------------------------------------|
                                
D|---------------------------------------------------------------------------|
A|---------------------------------------------------------------------------|
F|-9-9-9-9-9-9---------------------------------------------------------------|
C|------------12-11-12--5-5-5-5-5-5-7-7-7-7-7-7-9-9-9-9-9-9-111111-121212-9--|
G|---------------------------------------------------------------------------|
C|---------------------------------------------------------------------------|

guitar II  starts at 2:12

D|-7p0----7p0----7p0----7p0----7p0-----7p0------9p0-9p0-9p0-10p0-10p0-10p0-|
A|----8p0----8p0----8p0----8p0----8p0-----8p0------------------------------|
F|-------7------7------7------7-------7--------7---------------------------|
C|-------------------------------------------------------------------------|
G|-------------------------------------------------------------------------|
C|-------------------------------------------------------------------------|

D|-7p0----7p0----7p0----7p0-----7p0----7p0------9p0-9p0-9p0-10p0-10p0-10p0-|
A|----8p0----8p0----8p0----8p0-----8p0----8p0------------------------------|
F|-------7------7------7------7-------7------7-----------------------------|
C|-------------------------------------------------------------------------|
G|-------------------------------------------------------------------------|
C|-------------------------------------------------------------------------|

D|-7p0----7p0----7p0----7p0----7p0-----7p0-----7p0-----7p0-----------------|
A|----8p0----8p0----8p0----8p0----8p0-----8p0-----8p0-----8p0--------------|
F|-------7------7------7------7-------7-------7------7-------7-------------|
C|-------------------------------------------------------------------------|
G|-------------------------------------------------------------------------|
C|-------------------------------------------------------------------------|

guitar III - 2:12
D|---------------------------------------------------------------------------|
A|---------------------------------------------------------------------------|
F|---------------------------------------------------------------------------|
C|--5(x24)---9(x12)---0(x12)----5(x24)---9-----------------------------------|
G|--5--------9--------0---------5--------9-----------------------------------|
C|--5--------9--------0---------5--------9-----------------------------------|

  Bridge 2:39 guitar I with some cool effect

D|-------------------------------------------------------------------------|
A|-------------------------------------------------------------------------|
F|----7~---------6~------7~-----4~--3~-----7~--9~--12~--11~--9~--7~--7~6~--|
C|-------------------------------------------------------------------------|
G|-------------------------------------------------------------------------|
C|-------------------------------------------------------------------------|

D|-------------------------------------------------------------------------|
A|-------------------------------------------------------------------------|
F|------12~--11~--9~--7~--6~-----------------------------------------------|
C|-------------------------------------------------------------------------|
G|-------------------------------------------------------------------------|
C|-------------------------------------------------------------------------|
          Bridge 2:39 guitar II
                                    (x3)
D|-7p0----7p0----7p0----7p0----6p0-----6p0-----6p0------6p0----------------|
A|----8p0----8p0----8p0----8p0----6p0----6p0------6p0------6p0-------------|
F|-------7------7------7------7------6------6--------6--------6------------|
C|-------------------------------------------------------------------------|
G|-------------------------------------------------------------------------|
C|-------------------------------------------------------------------------|

D|-7p0----7p0----7p0----7p0----6p0-----6p0-------8p0-8p0-8p0 9p0-9p0-9p0---|
A|----8p0----8p0----8p0----8p0----6p0----6p0-------------------------------|
F|-------7------7------7------7------6------6------------------------------|
C|-------------------------------------------------------------------------|
G|-------------------------------------------------------------------------|
C|-------------------------------------------------------------------------|

    outro 3:21    guitar I
D|------------------------------------------------------------------------|
A|------------------------------------------------------------------------|
F|------------------------------------------------------------------------|
C|-1(x24)--5(x24)-4(x24)-5(x24)-1(x12)-5(x24)-4(x12)-5(x24)-1(x12-5(x24)--|
G|-1-------5------4------5------1------5------4------5------1-----5-------|
C|-1-------5------4------5------1------5------4------5------1-----5-------|
               continues the pattern 5-4-5-1--5-4-5-1---------------------| then fades out

 guitar II 3:21

   (  x4    ) (    x4   )   (   x2     )     (   x4     ) (   x2    )
D|-18p0--------19p0----------18p0-------------19p0--------18p0---------------|
A|-----18p0--------20p0----------18p0-------------20p0--------18p0-----------|
F|---------18----------19------------18---------------19----------18---------|
C|---------------------------------------------------------------------------|
G|---------------------------------------------------------------------------|
C|---------------------------------------------------------------------------|

    (   x4    ) (    x2   )
D|--19p0---------18p0-----------repeat this pattern until song ends----------|
A|------20p0---------18p0----------------------------------------------------|
F|----------19-----------18--------------------------------------------------|
C|---------------------------------------------------------------------------|
G|---------------------------------------------------------------------------|
C|---------------------------------------------------------------------------|
        I know he plays something different above but i can't figure it out

         guitar III 3:21
D|---18~--20~--21~--19~---let each note ring out-----------------------------|
A|---------------------------------------------------------------------------|
F|---------------------------------------------------------------------------|
C|---------------------------------------------------------------------------|
G|---------------------------------------------------------------------------|
C|---------------------------------------------------------------------------|
            keep playing this until the song fades out
hope you like it
Tap to rate this tab
 
# A B C D E F G H I J K L M N O P Q R S T U V W X Y Z