Song name
# A B C D E F G H I J K L M N O P Q R S T U V W X Y Z

Thrice - The Flame Deluge tab

Thrice-The Flame Deluge
Tuning-Standard

This is just the opening riff, which is really played on a synth/strings type combo but
arranged it for a guitar.  This is just the intro, but its the main driving riff behind
entire song and repeats for most of the song.  I dont know what tuning the song is 
in, but this riff is in standard.


e -13-12-------12-13-12-------|
B -------14-15----------------|
G ----------------------------|
D ----------------------------|
A ----------------------------|
E ----------------------------|

e -13-12-------12-15-13-------|
B -------14-15----------------|
G ----------------------------|
D ----------------------------|
A ----------------------------|
E ----------------------------|

e -18-17-------15-15-17-------|
B -------17-18----------18----|
G ----------------------------|
D ----------------------------|
A ----------------------------|
E ----------------------------|

e -15-13-------12-13-13-15-12-|
B -------15-15----------------|
G ----------------------------|
D ----------------------------|
A ----------------------------|
E ----------------------------|
Tap to rate this tab
 
# A B C D E F G H I J K L M N O P Q R S T U V W X Y Z