Guitaretab - guitar tabs
Song name
# A B C D E F G H I J K L M N O P Q R S T U V W X Y Z

Thrice - Firebreather tab

Artist: Thrice
Song: Firebreather
Album: The Alchemy Index Vol. I: Fire
Year: 2007
Label: Vagrant

Guitars: Dustin Kensrue
         Teppei Teranishi

Tuning: AADGBE (Drop A)

Intro

Guitar 1 - Heavy distortion - 4 times
E---------------------|
B---------------------|
G---------------------|
D---------------------|
A-0-22-0-2--00-2-00-2-|
A-0-22-0-2--00-2-00-2-|

Guitar 2 - Heavy distortion - 4 times
E---------------------|
B---------------------|
G---------------------|
D-2-44-2-4--22-4-22-4-|
A-0-22-0-2--00-2-00-2-|
A---------------------|

Verse (second verse is all bass same progession)

Guitar 1 - Heavy distortion - 2 times    2nd ending add chord
E-------|--------------------------------|---|
B-------|--------------------------------|---|
G-------|--------------------------------|---|
D-------|--------------------------------|---|
A-------|-0-2-2-10-9--5-5-7--4-4-5-------|-7-|
A-------|-0-2-2-10-9--5-5-7--4-4-5-------|-7-|

Guitar 2 - Light distortion|heavy distortion two times    2nd ending add
E------------------------------|--------------------------|---|
B------------------------------|--------------------------|---|
G------------------------------|--------------------------|---|
D------------------------------|-2-4-4-12-10-7-7-9--6-6-7-|-9-|
A------------------------------|-0-2-2-10-9--5-5-7--4-4-5-|-7-|
A-12-14-14--9-10--7-7-9--5-5-7-|--------------------------|---|

Chorus
[ Tab from: http://www.guitaretab.com/t/thrice/98202.html ]
Guitar 1 - Heavy distortion - One time
E---------------------------------------------------------------------------|
B---------------------------------------------------------------------------|
G---------------------------------------------------------------------------|
D---------------------------------------------------------------------------|
A-9-9-9-9-9-9-9-9-10-10-10-10-7-7-7-7-9-9-9-9-9-9-9-9-10-10-10-10-x-77-x-77-|
A-9-9-9-9-9-9-9-9-10-10-10-10-7-7-7-7-9-9-9-9-9-9-9-9-10-10-10-10-x-77-x-77-|

Guitar 2 - Coming soon

Outro

Guitar 1 - Heavy distortion - till end
E-------------------------------------------------------------------------|
B-------------------------------------------------------------------------|
G-------------------------------------------------------------------------|
D-------------------------------------------------------------------------|
A-5-5-5-5-5-5-5-000-5-5-5-5-5-5-5-000-2-2-2-2-2-2-2-000-2-2-2-2-2-2-2-000-|
A-5-5-5-5-5-5-5-000-5-5-5-5-5-5-5-000-2-2-2-2-2-2-2-000-2-2-2-2-2-2-2-000-|

Guitar 2 - distortion - two times
E---------10~-10-9-------------10~-10-9b10b9---------------9---------------|
B----10------------10-----10----------------12----12~--------12----12~--10-|
G-11----11-------------11----11----------------11-------11------11---------|
D--------------------------------------------------------------------------|
A--------------------------------------------------------------------------|
A--------------------------------------------------------------------------|

Till the end with some variation during the fade out
E---------------------------------------------------------------------------|
B---------------------------------------------------------------------------|
G-/11~----9~---/14~----11~----9~---/14~---7~----6~---/11~---7~----6~---/11~-|
D---------------------------------------------------------------------------|
A---------------------------------------------------------------------------|
A---------------------------------------------------------------------------|
Related for Firebreather tab
×
Best way to learn
"Firebreather"