Guitaretab - guitar tabs
Song name
# A B C D E F G H I J K L M N O P Q R S T U V W X Y Z

Thrice - Night Diving tab

Thrice - Night Diving

Tabbed by Ivan
Myspace.com/chngotumadre


INTRO

GUITAR 1
D|--------------------------------------------------------------------------|
A|--------------------------------------------------------------------------|
F|-----10---9---5---5------10--9--5--5--5------10--9--9--9-----10--9--9--9--|
C|--------------------------------------------------------------------------|
G|--5----5---5---5-------5--5--5--5---5------8--8--8--8--------8--8--8--8---|
C|--------------------------------------------------------------------------|

OR

GUITAR 1
D|---------------------------------------------------------------------------|
A|---------------------------------------------------------------------------|
F|-----10---9---5---5---------10--9---5--5-------10--9---5-------10--9---5---|
C|---0---0---0----0----------0---0---0--0------------------------------------|
G|------------------------------------------------8--8---8---------8--8---8--|
C|---------------------------------------------------------------------------|
[ Tab from: http://www.guitaretab.com/t/thrice/98751.html ]
TIME: 1:16, 1:51, 3:03
D|---------------------------------------|
A|--10--9--12----------------------------|
F|---------------------------------------|
C|-6--6--6-------------------------------|
G|---------------------------------------|
C|---------------------------------------|

MAIN RIFF
Credit to: The_Shame

D|------------------------------------------------------------------------------------------------------------------------|
A|------------------------------------------------------------------------------------------------------------------------|
F|------------------------------------------------------------------------------------------------------------------------|
C|-00000---------------0000-------3-5-3---------3-5-3----22-3---00000-----------0000-------3-5-3--------1-3-1-------------|
G|-00000---------------0000-------3-----3-------3-----3---------00000-----------0000-------3-----5------1-----3-----------|
C|-00000-77-3b-3b------0000-77-3--3-------------3---------------00000-77-3b-3b--0000-77-3--3------------1-----------------|


Listen to the song to get the correct structure.
Related for Night Diving tab
Advertisement will be closed in 10 seconds