Song name
# A B C D E F G H I J K L M N O P Q R S T U V W X Y Z

Thrice - Backdraft tab

Artist: Thrice
Song: Backdraft
Album: The Alchemy Index Vol. I: Fire
Year: 2007
Label: Vagrant

Guitars: Dustin Kensrue
         Teppei Teranishi

Tuning: DADGBE (Drop D)

*****UPDATE 1/15/08: GUITAR 2 ADDED IN THE CHORUS*****

Intro/Verse - Acoustic
E------------------------------------------------------------------------|
B------------------------------------------------------------------------|
G-------10-------10-------10-------10--------6--------6--------6-------6-|
D---4/7------7----------7------7---------0p3------3--------0h3-----3-----|
A----------9---9------9------9---9--------------5---5------------5---5---|
D-0-----------------0------------------0-----------------0---------------|

E-------------------------------------------------------------------------|
B-------------------------------------------------------------------------|
G-------------------------------------------------------------------------|
D-------6--------6--------6--------6--------6--------6--------6--------6--|
A---0h3----0h3p0------0h3----0h3p0------0h3----0h3p0------0h3----0h3p0----|
D-0-----------------0-----------------0-----------------0-----------------|

Chorus

Guitar 1 (tens not ones and zeros btw)
E---------------------------------------------------------|
B---------------------------------------------------------|
G---------------------------------------------------------|
D---------------------------------------------------------|
A-3336665588-3336665588661010-3336665588-3336665588661010-|
D-3336665588-3336665588661010-3336665588-3336665588661010-|

E---------------------------------------------------|
B---------------------------------------------------|
G---------------------------------------------------|
D---------------------------------------------------|
A-3336665588-3336665588-3336665588-3336665588661010-|
D-3336665588-3336665588-3336665588-3336665588661010-|

Guitar 2
E--------16-15---------------------------------16-15---------------------------|
B-18------------------18----16----13~---18-----------------18------------------|
G----17--------17~-------17----15----------17--------17~------17-15-13-12sb~---|
D------------------------------------------------------------------------------|
A------------------------------------------------------------------------------|
D------------------------------------------------------------------------------|
Tap to rate this tab
 
# A B C D E F G H I J K L M N O P Q R S T U V W X Y Z