Song name
# A B C D E F G H I J K L M N O P Q R S T U V W X Y Z

Through The Eyes Of The Dead - Insomnium tab

Through the Eyes of the Dead
Skepsis
Insomnium (Intro)

Gtr 1
|--------------------|------------------------|
|--------------------|----------0--1--0-------|
|--------------------|-------1-----------1----|
|--------------------|----3-----------------3-|
|-5--------6666-5--3-|-5----------------------|
|-3--------4444-3--1-|-3----------------------|
           .... .  .   .                      |
Gtr 2                                         |
|--------------------|------------------------|
|--------------------|------------------------|
|--------------------|------------------------|
|--------------------|------------------------|
|-5--------6666-5--3-|-5----------------------|
|-3--------4444-3--1-|-3----------------------|
           .... .  .   .

Gtr 1 
|------------------------|------------------------|
|------------------------|----------0--1--0--1--3-|
|------------------------|-------1----------------|
|------------------------|----3-------------------|
|-9--------10101010-9--6-|-9----------------------|
|-7--------8-8-8-8--7--4-|-7----------------------|
           . . . .  .  .   .                      |
Gtr 2                                             | 
|------------------------|------------------------|
|------------------------|------------------------|
|------------------------|------------------------|
|------------------------|------------------------|
|-9--------10101010-9--6-|-9----------------------|
|-7--------8-8-8-8--7--4-|-7----------------------|
           . . . .  .  .   .

Gtr 1 
|--------------------|------------------------|
|--------------------|----------0--1--0-------|
|--------------------|-------1-----------1----|
|--------------------|----3-----------------3-|
|-5--------6666-5--3-|-5----------------------|
|-3--------4444-3--1-|-3----------------------|
           .... .  .   .                      |
Gtr 2                                         |
|--------------------|------------------------|
|--------------------|------------------------|
|--------------------|------------------------|
|--------------------|------------------------|
|-5--------6666-5--3-|-5----------------------|
|-3--------4444-3--1-|-3----------------------|
           .... .  .   .

Gtr 1
|-----------------------|-------------------------|
|-3--1--0-------1--0----|-----------0--1--0-------|
|----------1----------1-|-0-----1------------1----|
|-----------------------|----3------------------3-|
|-----------------------|-------------------------|
|-----------------------|-------------------------|
Gtr 2                                             |
|-----------------------|-------------------------|
|-3--1--0-------1--0----|-----------0--1--0-------|
|----------1----------1-|-0-----1------------1----|
|-----------------------|----3------------------3-|
|-----------------------|-------------------------|
|-----------------------|-------------------------|

That's all I've figured out.
Tap to rate this tab
 
# A B C D E F G H I J K L M N O P Q R S T U V W X Y Z