Through The Eyes Of The Dead - Failure In The Flesh tab

Song: Failure in the Flesh
Artist: Thorugh the Eyes of the Dead
Album: Malice
Label: Prosthetic
Tuning: (low to high) 7 string BEADGBE

Riff one
|-------------------------------------------------------------|
|-------------------------------------------------------------|
|-------------------------------------------------------------|
|-------------------------------------------------------------|
|-------------------------------------------------------------|
|-------------222---------333-----------------222---------5/8-|
|-111-000-444-----444-000-----555-111-000-444-----444-000-----|
  ... ... ... ... ... ... ... ... ... ... ... ... ... ...

Riff one continued
|---------------------------------------------------------|
|---------------------------------------------------------|
|---------------------------------------------------------|
|---------------------------------------------------------|
|---------------------------------------------------------|
|-------------222---------333-----3-------------3---------|
|-111-000-444-----444-000-----555-1-000-000-000-1-000-4/7-|
  ... ... ... ... ... ... ... ...   ... ... ...   ...

Riff two (trem picking)
|--------------------------------------------------|
|--------------------------------------------------|
|--------------------------------------------------|
|--------------------------------------------------|
|--------------------------------------------------|
|----------222------333------------222------555888-|
|-111000444---444000---555111000444---444000-------|

Riff two continued (trem pick all but last part)
|--------------------------------------------------|
|--------------------------------------------------|
|--------------------------------------------------|
|--------------------------------------------------|
|--------------------------------------------------|
|----------222------333----3-------------3---------|
|-111000444---444000---555-1-000-000-000-1-000-4/7-|
                             ... ... ...   ...

Ending to 2nd time of riff 2
|-------------------------|
|-------------------------|
|-------------------------|
|-------------------------|
|-------------------------|
|-3-------------3---------|
|-1-000-000-000-1-000-8\5-|
    ... ... ...   ...

Riff three
|-----------------------------------------------------------------|
|-----------------------------------------------------------------|
|-----------------------------------------------------------------|
|-----------------------------------------------------------------|
|-----------------------------------------------------------------|
|-7---7---7h8p7---11---12-11-8---8h11-7---7---7h8p7---------------|
|---0---0-------0----0---------0--------0---0-------000-00-000-00-|
    .   .       .    .         .        .   .       ... .. ... ..

Riff three continued
|-------------------------------------------------------------|
|-------------------------------------------------------------|
|-------------------------------------------------------------|
|-------------------------------------------------------------|
|-----------------9---9-7-6---6h7-6---6---6h7p6---------------|
|-7---7---7h8p7---------------------------------333-33-333-33-|
|---0---0-------0---0-------0-------0---0-------111-11-111-11-|
    .   .       .   .       .       .   .       ... .. ... ..

Riff four
|-------------------------------------------------------|
|-------------------------------------------------------|
|-------------------------------------------------------|
|-------------------------------------------------------|
|-9---------7/10--------7/9-------------------------3-6-|
|-7---------5/8---------5/7-------------------3-5-7-----|
|-7-000-000-5/8-000-000-5/7-000-000-000-4-5-7-----------|
    ... ...     ... ...     ... ... ...

Riff four continued
|---------------------------------------------------------|
|---------------------------------------------------------|
|---------------------------------------------------------|
|---------------------------------------------------------|
|-9---------7/10--------7-------------3-6-------------6-7-|
|-7---------5/8---------5-------3-5-7-----------5-7-8-----|
|-7-000-000-5/8-000-000-5-4-5-7-----------5-7-8-----------|
    ... ...     ... ...

Riff five
|----------------------------|
|----------------------------|
|----------------------------|
|-9-7-5-9-10-14-13-10--------|
|-x-x-x-x--x--x--x--x--------|
|-7-5-3-7--8-12-11--8-222222-|
|---------------------111111-|
                      ...... 
                        
                    
Tap to rate this tab
 
# A B C D E F G H I J K L M N O P Q R S T U V W X Y Z