Guitaretab - guitar tabs
Song name
# A B C D E F G H I J K L M N O P Q R S T U V W X Y Z

Through The Eyes Of The Dead - Black Death And Its Aftermath tab

Through The Eyes of the Dead
Black Death and its Aftermath
Bloodlust  the best CD Ive ever heard, buy it.
These guys actually play standard tuned seven-string guitars, but this is a tab
for my six string guitar, like most people have. I think this sounds pretty close.

Drop B [B F# B G# C# E]
[ Tab from: http://www.guitaretab.com/t/through-the-eyes-of-the-dead/68054.html ]
|-------------|-------------|-------------|-------10------|
|-----3-4-3---|-------3-----|-----3-4-3---|----------8----|
|---5-------5-|-----4---4---|---5-------5-|-----0------0--|
|-------------|---4-------4-|-------------|---0-----------|
|-3-----------|-2-----------|-3-----------|---------------|
|-------------|-------------|-------------|-5-------------|

|-------------|-------------|-------------|--------------|
|-----6-7-6---|-------6-----|-------------|--------------|
|-------------|-----7---7---|-------5-----|-------7------|
|---8-------8-|---8-------8-|-----6---6---|-----5---5----|
|-6-----------|-5-----------|---6-------6-|---5-------5--|
|-------------|-------------|-6-----------|-5------------|
Related for Black Death And Its Aftermath tab