Song name
# A B C D E F G H I J K L M N O P Q R S T U V W X Y Z

Through The Eyes Of The Dead - Decaying Process tab

Through The eyes of The Dead
The Decaying Process
tuning:B,E,A,D,G,B,E  7-String

. palm mute


E-----------------------------------------------------------|
B-----------------------------------------------------------|
G-----------------------------------------------------------|
D-----------------------------------------------------------|
A-1---0---1---0---1---0-------------------------------------|
E-1---0---1---0---1---0-------------------------------------|
B-1---0---1---0---1---0------1----3-4---2--1h2p1------------|
      .       .       .


E-----------------------------------------------------------|
B-----------------------------------------------------------|
G-----------------------------------------------------------|
D-----------------------------------------------------------|
A-1---0---1---0---1---0-------------------------------------|
E-1---0---1---0---1---0-------------------------------------|
B-1---0---1---0---1---0-------3-5-7-10-11-9h10p9------------|
Tap to rate this tab
 
# A B C D E F G H I J K L M N O P Q R S T U V W X Y Z