Song name
# A B C D E F G H I J K L M N O P Q R S T U V W X Y Z

Through The Eyes Of The Dead - Erratic Perception tab

-------------------------------------------------------------------------------
	  Erratic Perception - Through The Eyes Of The dead
-------------------------------------------------------------------------------
Tabbed by:DiamondOfblood
Email:Twisteddiamond7@aol.com

Tuning:Drop B (B F# B E G# C#)


X2 
Gtr 1/2
| |-------|-------|-------|----------|
| |-------|-------|-------|----------|
| |-------|-------|-------|----------|
| |--5----|--\1---|---4---|--1-4-1-4-|
| |--5----|--\1---|---4---|--1-4-1-4-|
| |--5----|--\1---|---4---|--1-4-1-4-|
                         p.m|-------|
X2
Gtr 1(Guitar 2 is harmonized with the octave notes in this lick, Cant tab that though)
| |-------|-------|-------|----------|
| |-------|-------|-------|----------|
| |-------|-------|-------|----------|
| |--5----|--\1---|---4---|--1-4-1-4-|
| |--x----|--\x---|---x---|--1-4-1-4-|
| |--5----|--\1---|---4---|--1-4-1-4-|
                         p.m|-------|

X2 
Gtr 1 Trem Picking on open notes(This part is a little hard to hear sure its right though)
| |-------|-------|-------|----------|
| |-------|-------|-------|----------|
| |-------|-------|-------|----------|
| |-------|-------|-------|--1-4-1-4-|
| |-------|-------|-------|--1-4-1-4-|
| |--0"---|--0"---|--0"---|--1-4-1-4-|
                         p.m|-------|

X1
Gtr 2 Plays This first
| |-------|-------|-------|----------|
| |-------|-------|-------|----------|
| |-------|-------|-------|----------|
| |--5----|--\1---|---4---|--1-4-1-4-|
| |--5----|--\1---|---4---|--1-4-1-4-|
| |--5----|--\1---|---4---|--1-4-1-4-|
                         p.m|-------|

X1
Gtr 2 Then Plays this
| |-------|-------|-------|----------|
| |-------|-------|-------|----------|
| |-------|-------|-------|----------|
| |--5----|--\1---|---4---|--1-4-1-4-|
| |--x----|--\x---|---x---|--1-4-1-4-|
| |--5----|--\1---|---4---|--1-4-1-4-|
                         p.m|-------|


And thats it..by my ears anyway

Questions, Complaints, Whatever, Email me 





Tap to rate this tab
 
# A B C D E F G H I J K L M N O P Q R S T U V W X Y Z