Song name
# A B C D E F G H I J K L M N O P Q R S T U V W X Y Z

Through You - Culo tab

Standard tuning
*=palm mute
^=half bend
po=pull off
+=let ring
~=Vibro
H=hammer on


Drum starts with the crash symbol

(intro)
|--------------------------------------------------------------------------|
|--------------------------------------------------------------------------|
|--------------------------------------------------------------------------|
|----------------------(12)(12)------------------(12)------------------(12)|
|-----------9999----------------------9999-----------9-------9999----------|
|----0000000----0000000--------0000000----0000000-----0000000----000000----|
     ******************        ******************     *****************


|--------------------------------------------------------------------------|
|--------------------------------------------------------------------------|
|--------------------------------------------------------------------------|
|(12)----------------------------------------------------------------------|
|-----------9999-----------------------------------------------------------|
|----0000000----9090909----------------------------------------------------|
     ***********popopopo

pull off on every nine

(verse)
|----------------------------------|
|----------------------------------|
|----------------------------------|    2X
|----------------------------------|
|----------------------------------|
|-000000055550000000--5--3--7------|
  *******    *******        +

(during the italian part)
|--------------------------------------------|
|--------------------------------------------|
|--------------------------------------------|
|--------------------------------------------|
|--------------------------------------------|
|---000-000-000-000-7-5-000-000-000-000-5-3--|
    *** *** *** ***     *** *** *** ***

(Verse) 1X don't let ring

(Chours)
|--------------------------------------------------------------|
|--------------------------------------------------------------|
|--------------------------------------------------------------|  3X
|-------5------5----5------3------3----3------7------7----7-~7~|
|--0000-5-0000-5-00-5-0000-3-0000-3-00-3-0000-7-0000-7-00-7----|
|--0000-5-0000-5-00-5-0000-3-0000-3-00-3-0000-7-0000-7-00-7----|
   ****   ****   **   ****   ****   **   ****   ****   **

Vibrate the 7 on the last passing

(Breakdown) pt 1
|---------------------------|
|---------------------------|
|---------------------------|
|---5---3---7---5---7---3---|
|---5---3---7---5---7---3---|
|---5---3---7---5---7---3---|

(Breakdown) pt 2
|--------------------------------------------------------|
|--------------------------------------------------------|
|--------------------------------------------------------|
|------------------(12)(12)------------------(14)(15)----|
|---------9999--------------------9999-------------------|
|--0000000----00000--------0000000----0000000------------|
   ****************        ******************

One guitar dose the 14 and 15 while the other does palm mute 0s

(Verse)2X don't let ring

(During the Spanish part)
|----------------------------------|
|----------------------------------|
|----------------------------------|
|----------------------------------|
|----------------------------------|
|---000-000-000----000-000-000-----|
    *** *** ***    *** *** ***
(Verse) 1X
(Chours)2X
(Breakdown pt 1)
(Chours)2X
(Chours) but with out the ~7~
(Breakdown pt 1)

(solo)
|--------------------------------------------------------------------------|
|--------------------------------------------------------------------------|
|--555555553355555555--------77777777557755555555553355555555--------------|
|--------------------55555555--------------------------------55555555------|
|--------------------------------------------------------------------------|
|--------------------------------------------------------------------------|


(Guitar 1)(ending solo)
|-----H5h7----H5H7----H5H7----H5H7--------|
|---------H7H5----H5H7----H5H7----H5H7----|
|-----------------------------------------|
|-----------------------------------------|
|-----------------------------------------|
|-----------------------------------------|

(Guitar 2) (Breakdown) when guitar one is doing the ending solo

Both (Chours)2X
(Chours)2X with out ~7~ at the end
(Breakdown)1X
Guitar 1 does the Beginning part of solo 2X (not sure on this one)
Guitar does the (Chours)2X
Both do (Breakdown)

well there you go Though You's Culo song hope you enjoy the song and the lyrics 
If i mess up make sure u give me info and ill try to fix it. Thank you.

This is for you guys from Though you. hope i did well
Tap to rate this tab
# A B C D E F G H I J K L M N O P Q R S T U V W X Y Z