Throw Me The Statue - Hi-fi Goon tab

There was no tabs for this song so I decided to look at the live performance video and 
an idea of how he played it. Then I figured it out. Enjoy! Here is the link to the band's 
website: http://throwmethestatue.com/

INTRO,CHORUS,OUTRO (x2)

        riff 1a                 riff 1b
e|-8--8--8--8--8-----------------------------------------------------------|Every second time
b|-8--8--8--8--8------------------13----13---------------------------------|you play riff 1b,
g|-9--9--9--9--9-13h14-x2--15h16-----16----16-------14-x2-|play an |a|-15--|
d|-10-10-10-10-10-----------------------------13h14------------------------|instead of an
a|-10-10-10-10-10-----------------------------------------||d|-14----------|
e|-8--8--8--8--8-----------------------------------------------------------|

VERSE (x2)

e|-3-3-3-3-5-5-5-5-5-5-5-5-1-1-1-1-3-3-3---0-0---1-1-1---3-3-|
b|-5-5-5-5-5-5-5-5-5-5-5-5-1-1-1-1-5-5-5---0-0---1-1-1---3-3-|
g|-5-5-5-5-5-5-5-5-4-4-4-4-2-2-2-2-5-5-5---1-1---2-2-2---4-4-|
d|-5-5-5-5-7-7-7-7-5-5-5-5-3-3-3-3-5-5-5---2-2---3-3-3---5-5-|
a|-3-3-3-3-7-7-7-7-5-5-5-5-3-3-3-3-3-3-3---2-2---3-3-3---5-5-|
e|---------5-5-5-5-3-3-3-3-1-1-1-1---------0-0---1-1-1---3-3-|

PRE-CHORUS

e|-5-----5-5-----5-|
b|-6-----6-6-----6-|
g|-7-----7-5-----5-|
d|-7-----7-7-----7-|
a|-5-----5-8-----8-|
e|-----------------|

BRIDGE

e|--------------------8--8--8--8--3-3-3-3-8--8--8--8--3-3-3-3-|
b|--------------------8--8--8--8--3-3-3-3-8--8--8--8--3-3-3-3-|
g|--------------------9--9--9--9--4-4-4-4-9--9--9--9--4-4-4-4-|
d|-7------------------10-10-10-10-5-5-5-5-10-10-10-10-5-5-5-5-|
a|-7------------------10-10-10-10-5-5-5-5-10-10-10-10-5-5-5-5-|
e|-5------------------8--8--8--8--3-3-3-3-8--8--8--8--3-3-3-3-|

e|-5-5-5-5-3-3-3-3-1-1-1-1---8--8--8--8--3-3-3-3-8--8--8--8--3-3-3-3-|
b|-5-5-5-5-3-3-3-3-1-1-1-1---8--8--8--8--3-3-3-3-8--8--8--8--3-3-3-3-|
g|-5-5-5-5-4-4-4-4-2-2-2-2---9--9--9--9--4-4-4-4-9--9--9--9--4-4-4-4-|
d|-7-7-7-7-5-5-5-5-3-3-3-3---10-10-10-10-5-5-5-5-10-10-10-10-5-5-5-5-|
a|-7-7-7-7-5-5-5-5-3-3-3-3---10-10-10-10-5-5-5-5-10-10-10-10-5-5-5-5-|
e|-5-5-5-5-3-3-3-3-1-1-1-1---8--8--8--8--3-3-3-3-8--8--8--8--3-3-3-3-|

At the end of the outro, play this quickly:
e|-8--8--8--8--|
b|-8--8--8--8--|
g|-9--9--9--9--|
d|-10-10-10-10-|
a|-10-10-10-10-|
e|-8--8--8--8--|

ORDER:
intro
verse
pre-chorus
chorus
verse
bridge
pre-chorus
chorus
outro

Hope you guys like it. Comments, questions and corrections can be sent at 
cookiecala_03@hotmail.com.
Tap to rate this tab
 
# A B C D E F G H I J K L M N O P Q R S T U V W X Y Z