Song name
# A B C D E F G H I J K L M N O P Q R S T U V W X Y Z

Throwback - Black Coffee chords

Highlighted       Show chord diagrams
-------------------------------------------------------------------------------
			     Black Coffee - Throwback
-------------------------------------------------------------------------------

Tuning: E A D G B E

  |   G#/F  |  C#  |   F#  |   B  |
e|------x------x-------x-------x-------------------------------------------------|
B|------7------x------ 11------x-------------------------------------------------|
G|------8------10------11------8-------------------------------------------------|
D|------8------11------11------9-------------------------------------------------|
A|------6------11------ 9------9-------------------------------------------------|
E|------x------9------- x------7-------------------------------------------------|


G#/F  |   C#   |   F#   |   B   |

Throughout the verses :/ Other parts coming soon

Tabbed by: tcrocRE
Tap to rate this tab
 
# A B C D E F G H I J K L M N O P Q R S T U V W X Y Z