Song name
# A B C D E F G H I J K L M N O P Q R S T U V W X Y Z

Throwdown - Raise Your Fist tab

Throwdown
Raise Your Fist


Tuning: CGCFAD  


|----------------------------------|
|----------------------------------|
|----------------------------------|
|-0-3-4-3-0-1-0-1------------------|
|-0-3-4-3-0-1-0-1------------------|
|-0-3-4-3-0-1-0-1------------------|

|--------------------11----------------|
|--------------------15----------------|
|--------------------------------------|
|-0-0-0-0-0-0-0-0----------------------|
|-0-0-0-0-0-0-0-0----------------------|
|-0-0-0-0-0-0-0-0----------------------|
  * * * * * * * * 
|-----------------------------------------------11-----| x2
|-----------------------------------------------15-----|
|------------------------------------------------------|
|-/-0-0-0-0-0-0-3-1-4-1--0-0-0-0-0-0-3-1-4-1-----------|
|-/-0-0-0-0-0-0-3-1-4-1--0-0-0-0-0-0-3-1-4-1-----------|
|-/-0-0-0-0-0-0-3-1-4-1--0-0-0-0-0-0-3-1-4-1-----------|
    * * * * * * * * * *  * * * * * * * * * * 
|---------------------| x8
|---------------------|
|---------------------|
|-4-1-4-1-0-1-0-1-----|
|-4-1-4-1-0-1-0-1-----|
|-4-1-4-1-0-1-0-1-----|

|---------------------| x4  
|---------------------|
|---------------------|
|---------------------|
|-4-3-3-3--7-6-6-6----|
|---------------------|

|---------------------------| x4
|---------------------------|
|----------------------5*---|
|-4-1-0-1-0-1-0---0-0--5*---|
|-4-1-0-1-0-1-0---0-0-------|
|-4-1-0-1-0-1-0---0-0-------|
                  * *
|------------------| x10     |----------------||-----||-----|
|------------------|         |----------------||-----||-----|
|------------------|         |----------------||-----||-----|
|-4-1--0-1-0-1-----|   then  |-1-0-0-4-0-0-3--||--0--||--0--|
|-4-1--0-1-0-1-----|         |-1-0-0-4-0-0-3--||--0--||--5--|
|-4-1--0-1-0-1-----|         |-1-0-0-4-0-0-3--||--0--||-----|
  * *  * * * *                 * * * * * * 

"...raise your fist in the air, drug free!"
|------------------| 
|------------------|
|------------------|
|------------------|
|-0-0-0-0-0-0-0-0--| 
|-0-0-0-0-0-0-0-0--| other guitarist puts 3's in time with the drum kicks
  * * * * * * * * 

A|---------------------------| x4  B|----------------------------| x2
 |---------------------------|      |----------------------------|
 |---------------------------|      |----------------------------|
 |-4-4-4-4-1-1-1-1-5-5-5-5---| then |-4-4-4----1-1-1-1-5-5-5-5---|
 |-4-4-4-4-1-1-1-1-5-5-5-5---|      |-4-4-4----1-1-1-1-5-5-5-5---|
 |-4-4-4-4-1-1-1-1-5-5-5-5---|      |-4-4-4----1-1-1-1-5-5-5-5---| then A Again x4
                                      * * *

"....lets GO!"
|---------------------| x8
|---------------------|
|---------------------|
|-4-1-4-1-0-1-0-1-----|
|-4-1-4-1-0-1-0-1-----|
|-4-1-4-1-0-1-0-1-----|

|------------------| x8 |--11--|
|------------------|    |--15--|
|------------------|    |------|
|-4-1--0-1-0-1-----|    |------|
|-4-1--0-1-0-1-----|    |------|
|-4-1--0-1-0-1-----|    |------|
  * *  * * * *

FIN
Tap to rate this tab
# A B C D E F G H I J K L M N O P Q R S T U V W X Y Z