Song name
# A B C D E F G H I J K L M N O P Q R S T U V W X Y Z

Throwdown - Unite tab

Help us improve GuitareTab! Take a short survey!
throwdown
unite



-------------------------------------------------------
-------------------------------------------------------
-------------------------------------------------------
-------------------------------------------------------
--0-0-0-0-0-0-0-0-0-0----------------------------------
--0-0-0-0-0-0-0-0-0-0----------------------------------
main riff/verse


-------------------------------------------------------------
-------------------------------------------------------------
-------------------------------------------------------------
-------------------------------------------------------------
--0-0-0-2-2-2-3-3-3-3-5-5-5-5--0-0-0--2-2-2-3-3-3-3-1-1-1-1--
--0-0-0-2-2-2-3-3-3-3-5-5-5-5--0-0-0--2-2-2-3-3-3-3-1-1-1-1--


-------------------------------------------------------
-------------------------------------------------------
-------------------------------------------------------
-----3-----------2--------1----------------------------
-0-0-3-0-2-3-0-0-2-2-3----1-2--------------------------
-0-0---0-2-3-0-0---2-3--0---2--------------------------
breakdown part
Related for Unite tab