Song name
# A B C D E F G H I J K L M N O P Q R S T U V W X Y Z

Throwdown - This Is Where It Ends tab

Gtr I (B F# B E G# C#) - 'Untitled'
Gtr II (B F# B E G# C#) - 'Untitled'

   Intro
    Q=155
   4/4
    Gtrs I, II
              PM--------|
    a Q  a Q  S S S S S S a E   +E  a Q  E E E Q   4x
||----------------------------|--------------------||
||o---------------------------|-------------------o||
||----------------------------|--------------------||
||----------------------------|--------------------||
||o-0h4--0h4--------------0h4-|-(4)-0h4----4---5--o||
||--0h4--0h4--0-0-0-0-0-0-0h4-|-(4)-0h4--0-4-0-5---||


   Chorus
    $
              PM--------|
    a Q  a Q  S S S S S S a E   +E  a Q  E E E Q   4x
||----------------------------|--------------------||
||o---------------------------|-------------------o||
||----------------------------|--------------------||
||----------------------------|--------------------||
||o-0h4--0h4--------------0h4-|-(4)-0h4----4---5--o||
||--0h4--0h4--0-0-0-0-0-0-0h4-|-(4)-0h4--0-4-0-5---||


   Verse
            PM------------------------------------------|
    E Q  Q  S S S S S S   S S S S S S S S S S S S S S S S
||----------------------|---------------------------------|
||o---------------------|---------------------------------|
||----------------------|---------------------------------|
||----------------------|---------------------------------|
||o-4-1--1--------------|---------------------------------|
||--4-1--1--1-1-1-1-1-1-|-1-1-1-1-1-1-1-1-1-1-1-1-1-1-1-1-|


          PM--------------------------|
  E Q  Q  S S S S S S   S S S S S S S S S S S S S S S S
|---------------------|----------------------------------||
|---------------------|---------------------------------o||
|---------------------|----------------------------------||
|---------------------|-----------------3h4p3p2-1h2p1p0--||
|-4-1--1--------------|---------------------------------o||
|-4-1--1--1-1-1-1-1-1-|-1-1-1-1-1-1-1-1------------------||


          PM------------------------------------------|
  E Q  Q  S S S S S S   S S S S S S S S S S S S S S S S
|---------------------|---------------------------------|
|---------------------|---------------------------------|
|---------------------|---------------------------------|
|---------------------|---------------------------------|
|-2-4--4--------------|---------------------------------|
|-2-4--4--4-4-4-4-4-4-|-4-4-4-4-4-4-4-4-4-4-4-4-4-4-4-4-|


  Gtr I
          PM--------------------------|
  E Q  Q  S S S S S S   S S S S S S S S S S S S S S S S
|---------------------|---------------------------------|
|---------------------|---------------------------------|
|---------------------|---------------------------------|
|---------------------|-----------------3h4p3p2-1h2p1p0-|
|-2-4--4--------------|---------------------------------|
|-2-4--4--4-4-4-4-4-4-|-4-4-4-4-4-4-4-4-----------------|
|
| Gtr II
|         PM--------------------------|
| E Q  Q  S S S S S S   S S S S S S S S S S S S S S S S
|---------------------|---------------------------------|
|---------------------|---------------------------------|
|---------------------|-----------------8h9p8p7-6h7p6p5-|
|---------------------|---------------------------------|
|-2-4--4--------------|---------------------------------|
|-2-4--4--4-4-4-4-4-4-|-4-4-4-4-4-4-4-4-----------------|


                                               To Coda
  Gtrs I, II
          PM------------------------------------------|
  E Q  Q  S S S S S S   S S S S S S S S S S S S S S S S
|---------------------|---------------------------------|
|---------------------|---------------------------------|
|---------------------|---------------------------------|
|---------------------|---------------------------------|
|-4-1--1--------------|---------------------------------|
|-4-1--1--1-1-1-1-1-1-|-1-1-1-1-1-1-1-1-1-1-1-1-1-1-1-1-|


                  D.S. al Coda
          PM--------|
  E Q  Q  S S S S S S   E H..
|---------------------|-----------|
|---------------------|-----------|
|---------------------|-----------|
|---------------------|-----------|
|-4-1--1--------------|-1---------|
|-4-1--1--1-1-1-1-1-1-|-1---------|


  &
  Gtr I
          PM--------------------------|
  E Q  Q  S S S S S S   S S S S S S S S S S S S S S S S
|---------------------|---------------------------------|
|---------------------|---------------------------------|
|---------------------|---------------------------------|
|---------------------|-----------------3h4p3p2-1h2p1p0-|
|-4-1--1--------------|---------------------------------|
|-4-1--1--1-1-1-1-1-1-|-1-1-1-1-1-1-1-1-----------------|
|
| Gtr II
|         PM--------------------------|
| E Q  Q  S S S S S S   S S S S S S S S S S S S S S S S
|---------------------|---------------------------------|
|---------------------|---------------------------------|
|---------------------|-----------------8h9p8p7-6h7p6p5-|
|---------------------|---------------------------------|
|-4-1--1--------------|---------------------------------|
|-4-1--1--1-1-1-1-1-1-|-1-1-1-1-1-1-1-1-----------------|


   Out-Chorus
    Gtrs I, II
              PM--------|
    a Q  a Q  S S S S S S a E   +E  a Q  E E E Q   5x
||----------------------------|--------------------||
||o---------------------------|-------------------o||
||----------------------------|--------------------||
||----------------------------|--------------------||
||o-0h4--0h4--------------0h4-|-(4)-0h4----4---5--o||
||--0h4--0h4--0-0-0-0-0-0-0h4-|-(4)-0h4--0-4-0-5---||


  a Q  a Q  Q  E a E   +E  a Q  Q  E Q
|--------------------|-------------------*|
|--------------------|-------------------*|
|--------------------|-------------------*|
|--------------------|-------------------*|
|-0h4--0h4-------0h4-|-(4)-0h4-------5\--*|
|-0h4--0h4-------0h4-|-(4)-0h4-------5\--*|



Duration Legend
---------------
W - whole; H - half; Q - quarter; E - 8th; S - 16th; T - 32nd; X - 64th; a - acciaccatura
+ - note tied to previous; . - note dotted; .. - note double dotted
Uncapitalized letters represent notes that are staccato (1/2 duration)
Irregular groupings are notated above the duration line
Duration letters will always appear directly above the note/fret number it represents the
duration for.  Duration letters with no fret number below them represent rests.  Multi-
bar rests are notated in the form Wxn, where n is the number of bars to rest for.  Low
melody durations appear below the staff

Tablature Legend
----------------
 h   - hammer-on
 p   - pull-off
 b   - bend
 pb  - pre-bend
 r   - bend release (if no number after the r, then release immediately)
 /\  - slide into or out of (from/to "nowhere")
 s   - legato slide
 S   - shift slide
 - natural harmonic
[n]  - artificial harmonic
n(n) - tapped harmonic
 ~   - vibrato
 tr  - trill
 T   - tap
 TP  - trem. picking
 PM  - palm muting
\n/  - tremolo bar dip; n = amount to dip
 \n  - tremolo bar down
 n/  - tremolo bar up
/n\  - tremolo bar inverted dip
 =   - hold bend; also acts as connecting device for hammers/pulls
 <> - volume swell (louder/softer)
 x   - on rhythm slash represents muted slash
 o   - on rhythm slash represents single note slash

Misc Legend
-----------
 |  - bar
||  - double bar
||o - repeat start
o|| - repeat end
*|  - double bar (ending)
 :  - bar (freetime)
 $  - Segno
 &  - Coda
Tempo markers -  = BPM(8/16=s8/s16), where s8 = swing 8ths, s16 = swing 16ths

Tap to rate this tab
 
# A B C D E F G H I J K L M N O P Q R S T U V W X Y Z