Song name
# A B C D E F G H I J K L M N O P Q R S T U V W X Y Z

Throwdown - This Continuum tab

Throwdown: This Continuum

Transcribed by: Andrew Zara (disturbedfreak0520@yahoo.com)

YouTube Account: MysticGuitar77

Tuning: Drop C (C,G,C,F,A,D)

Tab Key:
h = hammer-on
p = pull-off
* = palm-mute
/ = slide up
\ = slide down
ph= pinched harmonic
~ = vibrato/let ring
b = half bend (unless otherwise noted)

Riff 1
D|------------------------------------------------|
A|------------------------------------------------|
F|------------------------------------------------|
C|-1----------------------------------------------|
G|-1----------------------------------------------|
C|-1-0-0--0-0--0-0--0-0--0-0-0-0--0-0-0-0-0-0-0-0-|
     * *  * *  * *  * *  * * * *  * * * * * * * *

Riff 2   "Go!"
D|------------------------------------------------|
A|------------------------------------------------|
F|------------------------------------------------|
C|-0----------------------------------------------|
G|-0----------------------------------------------|
C|-0-0-0--0-0--0-0--0-0--0-0-0-0--8-8-8-8-7-7-7-7-|
     * *  * *  * *  * *  * * * *

D|------------------------------------------------|
A|------------------------------------------------|
F|------------------------------------------------|
C|-0----------------------------------------------|
G|-0----------------------------------------------|
C|-0-0-0--0-0--0-0--0-0--5-5-5-5--5-5-5-5-8-8-8-8-|
     * *  * *  * *  * *  * * * *

D|------------------------------------------------|
A|------------------------------------------------|
F|------------------------------------------------|
C|-0----------------------------------------------|
G|-0----------------------------------------------|
C|-0-0-0--0-0--0-0--0-0--0-0-0-0--8-8-8-8-7-7-7-7-|
     * *  * *  * *  * *  * * * *

D|---------------------------------------------|
A|---------------------------------------------|
F|---------------------------------------------|
C|-0-------------------------------------------|
G|-0------------------------5----------3-------|
C|-0-0-0--0-0--0-0--0-0--/7---7-5-0-/5---5-3-0-|
     * *  * *  * *  * *       * * *      * * *

Riff 3
D|------------------------------------------------------------------|
A|------------------------------------------------------------------|
F|------------------------------------------------------------------|
C|------------------------------------------------------------------|
G|------------------------------------------------------------------|
C|-0-0-0-0-0-0-0-0-0-0-0-0-0-0-0-0--0-0-0-0-0-0-0-0-0-0-0-0-0-0-0-0-|
   * * * * * * * * * * * * * * * *  * * * * * * * * * * * * * * * *

D|-------------------------------------------------------|
A|-------------------------------------------------------|
F|-------------------------------------------------------|
C|-------------------------------------------------------|
G|------------------------------------5----------3-------|
C|-0-0-0-0-0-0-0-0-0-0-0-0-0-0-0-0-/7---7-5-0-/5---5-3-0-|
   * * * * * * * * * * * * * * * *      * * *      * * *

Riff 4 - Guitar 1
D|---------------------------------------|
A|---------------------------------------|
F|---------------------------------------|
C|------------------------------55-------|
G|-88775588775887755887755997755--887755-|
C|---------------------------------------|
   *************************************

Riff 4 - Guitar 2
D|--------------------------|
A|--------------------------|
F|--------------------------|
C|-0-0----0-0----0-0----0-0-|
G|-0-0----0-0----0-0----0-0-|
C|-0-0----0-0----0-0----0-0-|
   * *    * *    * *    * *

Riff 5   "Spiraling, through this continuum!"
D|---------------------------------------------|
A|---------------------------------------------|
F|---------------------------------------------|
C|-8--7--5----7---7-8-7---8--7--3----5---------|
G|-8--7--5----------------8--7--3--------------|
C|-8--7--5--5---5-------5-8--7--3--3---3-3-3ph-|
            *   *       *          *   * *

Play Riff 2
Play Riff 3
Play Riff 4
Play Riff 1

Riff 6
D|---------------------------------|
A|---------------------------------|
F|---------------------------------|
C|---------------------------------|
G|---------------------------------|
C|-13b-0-13b-0-13b-0-13b-0-15b-13b-|

Play Riff 5
Play Riff 1

Riff 7
D|-----------------|
A|-----------------|
F|-----------------|
C|-----------------|
G|-----------------|
C|-0-0-0-0-0-0-0-0-|
   * * * * * * * *

There you go, Throwdown's new single off of "Deathless". There are a few parts left out 
I will add later, but this should give you a basic idea on how the song is played. Enjoy!
Tap to rate this tab
 
# A B C D E F G H I J K L M N O P Q R S T U V W X Y Z