Song name
# A B C D E F G H I J K L M N O P Q R S T U V W X Y Z

Throwdown - Tombs tab

                                  .=Palm Mute
                                  \=Slide Up
                                  /=Slide Down
                                  *=Harmonic

D|----------------------------------------------------------------------|
A|----------------------------------------------------------------------|
F|----------------------------------------------------------------------|X2
C|------------3------------------------3--------------------------------|
G|5-----3-------5---5------5-----3-------5---5--------------------------|
C|--6-3---6-3-----6---6-3----6-3---6-3-----6---6-3----------------------|


D|----------------------------------------------------------------------|
A|----------------------------------------------------------------------|
F|----------------------------------------------------------------------|
C|----------------------------------------------------------------------| 
G|100000-00000-0000-3\7/5-5----100000-00000-0000--5-5-1-----------------|
C|100000-00000-0000------6-653-100000-00000-0000-6-0-5------------------|
   ..... ..... ....             ..... ..... ....

D|----------------------------------------------------------------------|
A|----------------------------------------------------------------------|
F|----------------------------------------------------------------------|
C|------------------------------------------------------6*--------------|
G|100000-00000-0000-3\7/5-5----00000---0002*-5-5/66\33/5----------------|
C|100000-00000-0000------6-653-000005*-000------------------------------|
   ..... ..... ....            .....   ...

Tap to rate this tab
# A B C D E F G H I J K L M N O P Q R S T U V W X Y Z