Guitaretab - guitar tabs
Song name
# A B C D E F G H I J K L M N O P Q R S T U V W X Y Z

Throwdown - Declare Your War tab

artist : throwdow
song : declare your war
tuning : drop c
Legend:
P.m.- palm mute
T - triplet 
H - hammer on
/ - slide
   
   Intro
[--------------------------------------------------------]
[--------------------------------------------------------]
[--------------------------------------------------------]
[--------------------------------------------------------]
[-0-3-0-5-0-2-0-3-1-3------------------------------------]
[-0-3-0-5-0-2-0-3-1-3------------------------------------]
 p.m. -   -   -       (X4)


   Verse 
[----------------12-12-12-12--I--------------------------]
[----------------15-15-15-15--I--------------------------]
[-----------------------------I--------------------------]
[-----------------------------I--------------------------]
[-00-00-00-00-----------------I---00-00-00---------------]
[-00-00-00-00-----------------I---00-00-00---------------]
p.m. -- -- -- (X3)                -- -- -- (x1)


   Pre chorus 
[--------------------------------------------------------]
[--------------------------------------------------------]
[--------------------------------------------------------]
[--t-----------------------------------------------------]
[-000-00-00-00-------------------------------------------]
[-000-00-00-00-------------------------------------------]
p.m.- -- -- -- (x4)

    Chorus
[--------------------------------------------------------]
[--------------------------------------------------------]
[--------------------------------------------------------]
[--------------------------------------------------------]
[555555/6666/8888-555555/333333-555555/6666/88885555/6/8]
[--------------------------------------------------------]
(Not timed right so you gots to listen for it)
[ Tab from: http://www.guitaretab.com/t/throwdown/49345.html ]
   Pre verse
[-----------------I--------------------------------------]
[-----------------I--------------------------------------]
[-----------------I--------------------------------------]
[-----------------I--------------------------------------]
[-0-8-7-0-0-0-----I-2-5-2-1-0----------------------------]
[-0-8-7-00-0-----I2-5-2-1-0----------------------------]
p.m.- - - - - (x4)   h
   Verse                        Fill
[----------------12-12-12-12--I---12-12-12-12------------]
[----------------15-15-15-15-I---15-15-15-15------------]
[-----------------------------I--------------------------]
[-----------------------------I--------------------------]
[-00-00-00-00-----------------I--------------------------]
[-00-00-00-00-----------------I--------------------------]
p.m. -- -- --  X4)                    (X3)


   Pre chorus 
[--------------------------------------------------------]
[--------------------------------------------------------]
[--------------------------------------------------------]
[--T-----------------------------------------------------]
[-000-00-00-00-------------------------------------------]
[-000-00-00-00-------------------------------------------]
p.m.- -- -- -- (x4)


    Chorus
[--------------------------------------------------------]
[--------------------------------------------------------]
[--------------------------------------------------------]
[--------------------------------------------------------]
[555555/6666/8888-555555/333333-555555/6666/88885555/6/8]
[--------------------------------------------------------]
(Not timed right so you gots to listen for it)

   Pre verse
[-----------------I--------------------------------------]
[-----------------I--------------------------------------]
[-----------------I--------------------------------------]
[-----------------I--------------------------------------]
[-0-8-7-0-0-0-----I-2-5-2-1-0----------------------------]
[-0-8-7-00-0-----I2-5-2-1-0----------------------------]
p.m.- - - - - (x4)    h
(                           x2                           )


   Verse                         Fill
[----------------12-12-12-12--I---12-12-12-12------------]
[----------------15-15-15-15-I---15-15-15-15------------]
[-----------------------------I--------------------------]
[-----------------------------I--------------------------]
[-00-00-00-00-----------------I--------------------------]
[-00-00-00-00-----------------I--------------------------]
p.m. -- -- -- (X4)                    (X6)

  outro
[------------------------------I--------------------------]
[------------------------------I--------------------------]
[------------------------------I--------------------------]
[------------------------------I--------------------------]
[-0-0-00-12-14/0-0-0-12-11-12--I-----0-0-0-0--------------]
[-0-0-00-12-14/0-0-0-12-11-12--I-----0-0-0-0--------------]
p.m - --       - - - (x4)
Related for Declare Your War tab