Song name
# A B C D E F G H I J K L M N O P Q R S T U V W X Y Z

Throwdown - False Idols tab

Throwdown
False Idols


Tune to Dropped B 

"No more..." "This fixation..." 
|---------------------------|----------------------------| 
|---------------------------|----------------------------| 
|---------------------------|----------------------------| 
|---------------------------|---0------0-----0-----------| 
|-000--0-000--0-000-111-1-1-|-000--0-000---000-0-1-1-1-1-| 
|-000--0-000--0-000-111-1-1-|-000--0-000---000-0-1-1-1-1-| 
pm... . ... . ... ... . . .. . .. .. . . . . . 

"Your idols..." 
|--------------------------|------------------------------| 
|--------------------------|------------------------------| 
|--------------------------|------------------------------| 
|-0------------------------|------------------------------| 
|-0--0--0-0--000-0-1-1-1-1-|-3-3-3-3-3-3-3-3-6-6-6-6-1-1--| 
|-0--0--0-0--000-0-1-1-1-1-|-3-3-3-3-3-3-3-3-6-6-6-6-1-1--| 
pm . . . ... . . . . . . . . . . . . . . 

"Who can you run to..." 
|-----------------------------|-----------------------------| 
|-----------------------------|-----------------------------| 
|-------6---------------------|-------6---------------------| 
|-----------------------------|-----------------------------| 
|-------4---------------------|-0--0--4-0---0--0--0-1-3-1-3-| 
|-0--0----0---0--0--0-1-3-1-3-|-0--0----0---0--0--0-1-3-1-3-| 

"Please don't idolize..." 
|---------------------------------------------------------| 
|---------------------------------------------------------| 
|---------------------------------------------------------| 
|---------------------------------------------------------| 
|-0-0---0-0-0---0-0-0-1-1-1-1-0-0---0-0-0---0---0-1-1-1-1-| 
|-0-0---0-0-0---0-0-0-1-1-1-1-0-0---0-0-0---0---0-1-1-1-1-| 

The only tricky things about this song are the rhythms and fills, which are mainly 
slides and non-palm muted 
single notes played on the last repeat of a riff that usually ends with muted 
chords. Anyway, I did my best to 
tab the rhythm correctly. So have fun.
Tap to rate this tab
# A B C D E F G H I J K L M N O P Q R S T U V W X Y Z