Guitaretab - guitar tabs
Song name
# A B C D E F G H I J K L M N O P Q R S T U V W X Y Z

Throwdown - Annihilation Nwd tab

Artist: 	Throwdown
Song:	  	Annihilation (N.W.D.)
Album:	Vendetta
Tuning: 	Drop C (CGCFAD)

* Palm Mute		/ Slide Up     	\Slide Down
h Hammer On     	p Pull Off		ph Pinch Harmonic
nh Natural Harmonic

Guitar 1 

Intro x8
|---4/5-55---4/5-55--0-444-----------------------------------------------|
|---4/5-55---4/5-55--0-444-----------------------------------------------|
|---4/5-55---4/5-55--0-444-----------------------------------------------|
|------------------------------------------------------------------------|
|------------------------------------------------------------------------|
|------------------------------------------------------------------------|

Chorus 
|---000-0-0-0-0-0-0-0-0-0-0-0-0-0-0---0h5-8-5-0-8-5-0-8-5-0-5-8-0-5-5ph--|
|-----000-0-0-0-0-0-0-0-0-0-0-0-0-0-0------------------------------------|
|------------------------------------------------------------------------|
|------------------------------------------------------------------------|
|------------------------------------------------------------------------|
|------------------------------------------------------------------------|
	*** * * * * * * * * * * * * * *

|---000-0-0-0-0-0-0-0-0-0-0-0-0-0-0---0h5-8-5-0-8-5-0-8-5-0-5-8-0-0-2----|
|---000-0-0-0-0-0-0-0-0-0-0-0-0-0-0-------------------------------0-2----|
|-------------------------------------------------------------------2----|
|------------------------------------------------------------------------|
|------------------------------------------------------------------------|
|------------------------------------------------------------------------|
|------------------------------------------------------------------------|
	*** * * * * * * * * * * * * * *					  *
[ Tab from: http://www.guitaretab.com/t/throwdown/72204.html ]
|---000-0-0-0-0-0-0-0-0-0-0-0-0-0-0---0h5-8-5-0-8-5-0-8-5-0-5-8-0-5-5ph--|
|---000-0-0-0-0-0-0-0-0-0-0-0-0-0-0--------------------------------------|
|------------------------------------------------------------------------|
|------------------------------------------------------------------------|
|------------------------------------------------------------------------|
|------------------------------------------------------------------------|
|------------------------------------------------------------------------|
	*** * * * * * * * * * * * * * *

|---000-0-0-0-0-0-0-000-0-0-000-0-0---0h5-8-5-0-8-5-0-8-5-0-5-8-0-0-2-0--|
|---000-0-0-0-0-0-0-000-0-0-000-0-0-------------------------------0-2-0--|
|-------------------------------------------------------------------2-0--|
|------------------------------------------------------------------------|
|------------------------------------------------------------------------|
|------------------------------------------------------------------------|
	*** * * * * * * *** * * *** * *  					  *




Verse
|---3--0----3--0----3--0----3--0----00000000--3--0-----------------------|
|---3--0----3--0----3--0----3--0----00000000--3--0-----------------------|
|---3--0----3--0----3--0----3--0----00000000--3--0-----------------------|
|------------------------------------------------------------------------|
|------------------------------------------------------------------------|
|------------------------------------------------------------------------|
						********

|---000-0--3-0-3--0-000-0-3-0-3--0-000-0-3-0-3-0-3/6666666---------------|
|---000-0--3-0-3--0-000-0-3-0-3--0-000-0-3-0-3---------------------------|
|------------------------------------------------------------------------|
|------------------------------------------------------------------------|
|------------------------------------------------------------------------|
|------------------------------------------------------------------------|
    *** *    *    * *** *   *    * *** *   *

Breakdown
|---4-0---4-0---4-0---4-0---4-0--00--00---4-0--00--00--------------------|
|---4-0---4-0---4-0---4-0---4-0--00--00---4-0-00--00--------------------|
|------------------------------------------------------------------------|
|------------------------------------------------------------------------|
|------------------------------------------------------------------------|
|------------------------------------------------------------------------|
					    ** **        ** **

Pretty simple, it all repeats itself.  I only got the rhythm guitar not backup lead. Thx.


Related for Annihilation Nwd tab