Song name
# A B C D E F G H I J K L M N O P Q R S T U V W X Y Z

Throwdown - Vendetta tab

-------------------------------------------------------------------------------
			     Vendetta - Throwdown
-------------------------------------------------------------------------------
Tabbed by: JuCe
Email: jcgsampaio@gmail.com

Tuning: B F# B E G# C#
Guitars 1&2
C#|---------------------------------------------------------------------------|
G#|---------------------------------------------------------------------------|
E |---------------------------------------------------------------------------|
B |---------------------------------------------------------------------------|
F#|---------------------------------------------------------------------------|
B |--*pick scrape*------------------------------------------------------------|




Guitar 1
C#|---------------------------------------------------------------------------|
G#|---------------------------------------------------------------------------|
E |---------------------------------------------------------------------------|
B |-44-4-4-441-115-554-4-44444-4-44444-4-4-411-155-544-4-4-444-4-4------------|
F#|-44-4-4-441-115-554-4-44444-4-44444-4-4-411-155-544-4-4-444-4-4------------|
B |-44-4-4-441-115-554-4-44444-4-44444-4-4-411-155-544-4-4-444-4-4------------|

Guitar 2
C#|---------------------------------------------------------------------------|
G#|---------------------------------------------------------------------------|
E |---------------------------------------------------------------------------|
B |-44-4-4-441-115-554-4-4-444-4-4-444-4-4-411-155-544-4-4-4------------------|
F#|-44-4-4-441-115-554-4-4-444-4-4-444-4-4-411-155-544-4-4-4------------------|
B |-44-4-4-441-115-554-4-4-444-4-4-444-4-4-411-155-544-4-4-4-*pick scrape*----|




Guitars 1&2
C#|---------------------------------------------------------------------------|
G#|---------------------------------------------------------------------------|
E |---------------------------------------------------------------------------|
B |-34-4-4-441-115-554-4-4-444-4-4-434-4-4-441-115-554-4-4-444-4-4------------|
F#|-34-4-4-441-115-554-4-4-444-4-4-434-4-4-441-115-554-4-4-444-4-4------------|
B |-34-4-4-441-115-554-4-4-444-4-4-434-4-4-441-115-554-4-4-444-4-4------------|




Guitars 1&2
C#|---------------------------------------------------------------------------|
G#|---------------------------------------------------------------------------|
E |---------------------------------------------------------------------------|
B |-34-4-4-441-115-554-4-4-444-4-4-434-4-4-441-115-554-4-4-444-4-4------------|
F#|-34-4-4-441-115-554-4-4-444-4-4-434-4-4-441-115-554-4-4-444-4-4------------|
B |-34-4-4-441-115-554-4-4-444-4-4-434-4-4-441-115-554-4-4-444-4-4------------|




Guitars 1&2
C#|---------------------------------------------------------------------------|
G#|---------------------------------------------------------------------------|
E |---------------------------------------------------------------------------|
B |-5----------------------------8--85------------------4-44------------------|
F#|-5----------------------------8--85------------------4-44------------------|
B |-5--5555555555555555555555555-8--85-5555555555558855-4-44------------------|
       *************************       ****************

	   
	   
	   
Guitars 1&2
C#|---------------------------------------------------------------------------|
G#|---------------------------------------------------------------------------|
E |---------------------------------------------------------------------------|
B |-5----------------------------8--85------------------4-44------------------|
F#|-5----------------------------8--85------------------4-44------------------|
B |-5--5555555555555555555555555-8--85-5555555555558855-4-44------------------|
       *************************       ****************
	   
	  

	  
Guitar 1
C#|---------------------------------------------------------------------------|
G#|---------------------------------------------------------------------------|
E |---------------------------------------------------------------------------|
B |-44-4-4-441-115-554-4-4-444-4-4-4------------------------------------------|
F#|-44-4-4-441-115-554-4-4-444-4-4-4------------------------------------------|
B |-44-4-4-441-115-554-4-4-444-4-4-4------------------------------------------|

Guitar 2
C#|---------------------------------------------------------------------------|
G#|---------------------------------------------------------------------------|
E |---------------------------------------------------------------------------|
B |---------------------------------------------------------------------------|
F#|---------------------------------------------------------------------------|
B |---------------------------------*pick scrape*-----------------------------|




Guitar 1   
C#|---------------------------------------------------------------------------|
G#|---------------------------------------------------------------------------|
E |---------------------------------------------------------------------------|
B |-34-4-4-441-115-554-4-4-444-4-4-434-4-4-441-115-554-4-4-444-4-4------------|
F#|-34-4-4-441-115-554-4-4-444-4-4-434-4-4-441-115-554-4-4-444-4-4------------|
B |-34-4-4-441-115-554-4-4-444-4-4-434-4-4-441-115-554-4-4-444-4-4------------|
Guitar 2

C#|---------------------------------------------------------------------------|
G#|---------------------------------------------------------------------------|
E |---------------------------------------------------------------------------|
B |---------------------------------------------------------------------------|
F#|-44-4-4-441-115-554-4-4-444-4-4-434-4-4-441-115-554-4-4-444-4-4------------|
B |---------------------------------------------------------------------------|

Guitar3
C#|---------------------------------------------------------------------------|
G#|---------------------------------------------------------------------------|
E |---------------------------------------------------------------------------|
B |---------------------------------------------------------------------------|
F#|---------------------------------------------------------------------------|
B |--------------------------------------------------*pick scrapes*-----------|




Guitars 1&2 
C#|---------------------------------------------------------------------------|
G#|---------------------------------------------------------------------------|
E |---------------------------------------------------------------------------|
B |-34-4-4-441-115-554-4-4-444-4-4-434-4-4-441-115-554-4-4-444-4-4------------|
F#|-34-4-4-441-115-554-4-4-444-4-4-434-4-4-441-115-554-4-4-444-4-4------------|
B |-34-4-4-441-115-554-4-4-444-4-4-434-4-4-441-115-554-4-4-444-4-4------------|




Guitars 1&2 
C#|---------------------------------------------------------------------------|
G#|---------------------------------------------------------------------------|
E |---------------------------------------------------------------------------|
B |-34-4-4-441-115-554-4-4-444-4-4-434-4-4-441-115-554-4-4-444-4-4------------|
F#|-34-4-4-441-115-554-4-4-444-4-4-434-4-4-441-115-554-4-4-444-4-4------------|
B |-34-4-4-441-115-554-4-4-444-4-4-434-4-4-441-115-554-4-4-444-4-4------------|




Guitars 1&2
C#|---------------------------------------------------------------------------|
G#|---------------------------------------------------------------------------|
E |---------------------------------------------------------------------------|
B |-5----------------------------8--85-------------------4-44-----------------|
F#|-5----------------------------8--85-------------------4-44-----------------|
B |-5--5555555555555555555555555-8--85--5555555555558855-4-44-----------------|
       *************************        ****************
  

  
  
Guitars 1&2
C#|---------------------------------------------------------------------------|
G#|---------------------------------------------------------------------------|
E |---------------------------------------------------------------------------|
B |-5----------------------------8--85-------------------4-44-----------------|
F#|-5----------------------------8--85-------------------4-44-----------------|
B |-5--5555555555555555555555555-8--85--5555555555558855-4-44-----------------|
       *************************        ****************

	   
	   
	   
Guitars 1&2
C#|---------------------------------------------------------------------------|
G#|---------------------------------------------------------------------------|
E |---------------------------------------------------------------------------|
B |-5-------5-------5----------8--85-------5------------4-44------------------|
F#|-5-------5-------5----------8--85-------5------------4-44------------------|
B |-5-5555555-5555555-55555555-8--85-5555555-5555558855-4-44------------------|
      ******  ******* ********       ******* **********

	  
	  
	  
Guitars 1&2
C#|---------------------------------------------------------------------------|
G#|---------------------------------------------------------------------------|
E |---------------------------------------------------------------------------|
B |-5-------5-------5----------8--85-------5------------4-44------------------|
F#|-5-------5-------5----------8--85-------5------------4-44------------------|
B |-5-5555555-5555555-55555555-8--85-5555555-5555558855-4-44------------------|
      ******  ******* ********       ******* **********

	  
	  
Guitars 1&2
C#|---------------------------------------------------------------------------|
G#|---------------------------------------------------------------------------|
E |---------------------------------------------------------------------------|
B |------4-4-4----4-4-4----4-4-4----------------------------------------------|
F#|------4-4-4----4-4-4----4-4-4----------------------------------------------|
B |--88554-4-488554-4-488554-4-4----------------------------------------------|
     ****     ****     ****
	 
	 
	 
	 
Guitar 1
C#|---------------------------------------------------------------------------|
G#|---------------------------------------------------------------------------|
E |---------------------------------------------------------------------------|
B |-1~-------------------3-1-6------------------------------------------------|
F#|-1~-------------------3-1-6------------------------------------------------|
B |-1~----12(13)*trill---3-1-6------------------------------------------------|

Guitar 2
C#|---------------------------------------------------------------------------|
G#|-------3(4)*trill----------------------------------------------------------|
E |---------------------------------------------------------------------------|
B |-1~-------------------3-1-6------------------------------------------------|
F#|-1~-------------------3-1-6------------------------------------------------|
B |-1~-------------------3-1-6------------------------------------------------|




Guitars 1&2
C#|---------------------------------------------------------------------------|
G#|---------------------------------------------------------------------------|
E |---------------------------------------------------------------------------|
B |-0---------------------------------3-6-1-----------------------------------|
F#|-0-0000-0000-0000-0000-0-0-0-0-0-0-3-6-1-----------------------------------|
B |-0-0000-0000-0000-0000-0-0-0-0-0-0-3-6-1-----------------------------------|
      **** **** **** **** * * * * * *


	  
	  
Guitar 1
C#|---------------------------------------------------------------------------|
G#|---------------------------------------------------------------------------|
E |---------------------------------------------------------------------------|
B |-0---------------------------------3-1-6-----------------------------------|
F#|-0-0000-0000-0000-0000-0-0-0-0-0-0-3-1-6-----------------------------------|
B |-0-0000-0000-0000-0000-0-0-0-0-0-0-3-1-6-----------------------------------|
      **** **** **** **** * * * * * *
	  
Guitar 2
C#|---------------------------------------------------------------------------|
G#|---------------------------------------------------------------------------|
E |---------------------------------------------------------------------------|
B |-0---------------------------------3-1-6-----------------------------------|
F#|-0-0000------0000-0000-----------0-3-1-6-----------------------------------|
B |-0-0000------0000-0000-----------0-3-1-6-----------------------------------|
      ****      **** ****           *

 
 

Guitars 1&2
C#|---------------------------------------------------------------------------|
G#|---------------------------------------------------------------------------|
E |---------------------------------------------------------------------------|
B |-0---------------------------------3-6-1-----------------------------------|
F#|-0-0000-0000-0000-0000-0-0-0-0-0-0-3-6-1-----------------------------------|
B |-0-0000-0000-0000-0000-0-0-0-0-0-0-3-6-1-----------------------------------|
      **** **** **** **** * * * * * *


	  
	  
Guitar 1
C#|---------------------------------------------------------------------------|
G#|---------------------------------------------------------------------------|
E |---------------------------------------------------------------------------|
B |-0---------------------------------3-1-6-----------------------------------|
F#|-0-0000-0000-0000-0000-0-0-0-0-0-0-3-1-6-----------------------------------|
B |-0-0000-0000-0000-0000-0-0-0-0-0-0-3-1-6-----------------------------------|
      **** **** **** **** * * * * * *
	  
Guitar 2
C#|---------------------------------------------------------------------------|
G#|---------------------------------------------------------------------------|
E |---------------------------------------------------------------------------|
B |-0---------------------------------3-1-6-----------------------------------|
F#|-0-0000------0000-0000-----------0-3-1-6-----------------------------------|
B |-0-0000------0000-0000-----------0-3-1-6-----------------------------------|
      ****      **** ****           *
	  
	  
	  
	  
Guitar 1
C#|---------------------------------------------------------------------------|
G#|---------------------------------------------------------------------------|
E |--------8~-----------------------------------------------------------------|
B |-1~---1-8~--1--1--1--------------------------------------------------------|
F#|-1~---1-6~--1--1--1--------------------------------------------------------|
B |-1~---1-----1--1--1--------------------------------------------------------|
         *
Guitar 2 
C#|---------------------------------------------------------------------------|
G#|---------------------------------------------------------------------------|
E |--------8~--8--8--8--------------------------------------------------------|
B |-1~---1-8~--8--8--8--------------------------------------------------------|
F#|-1~---1-6~--6--6--6--------------------------------------------------------|
B |-1~---1--------------------------------------------------------------------|
         *

		 
		
		
Guitar 1
C#|---------------------------------------------------------------------------|
G#|---------------------------------------------------------------------------|
E |---------------------------------------------------------------------------|
B |-0-------------------------------1-----------------------------------------|
F#|-0-0000----0000-0000----0000-0-0-1-----------------------------------------|
B |-0-0000----0000-0000----0000-0-0-1-----------------------------------------|
      ****    **** ****    **** * *

Guitar 2
C#|---------------------------------------------------------------------------|
G#|---------------------------------------------------------------------------|
E |---------------------------------------------------------------------------|
B |-0-------------------------------------------------------------------------|
F#|-0-0000----0000-0000----0000-0-0-6^----------------------------------------|
B |-0-0000----0000-0000----0000-0-0-------------------------------------------|
      ****    **** ****    **** * *


	
	
Guitar 1
C#|---------------------------------------------------------------------------|
G#|---------------------------------------------------------------------------|
E |---------------------------------------------------------------------------|
B |-0-------------------------------1-----------------------------------------|
F#|-0-0000----0000-0000----0000-0-0-1-----------------------------------------|
B |-0-0000----0000-0000----0000-0-0-1-----------------------------------------|
      ****    **** ****    **** * *

Guitar 2
C#|---------------------------------------------------------------------------|
G#|---------------------------------------------------------------------------|
E |---------------------------------------------------------------------------|
B |-0-------------------------------------------------------------------------|
F#|-0-0000----0000-0000----0000-0-0-6^----------------------------------------|
B |-0-0000----0000-0000----0000-0-0-------------------------------------------|
      ****    **** ****    **** * *


	
	
Guitar 1
C#|---------------------------------------------------------------------------|
G#|---------------------------------------------------------------------------|
E |---------------------------------------------------------------------------|
B |-0-------------------------------1-----------------------------------------|
F#|-0-0000----0000-0000----0000-0-0-1-----------------------------------------|
B |-0-0000----0000-0000----0000-0-0-1-----------------------------------------|
      ****    **** ****    **** * *

Guitar 2
C#|---------------------------------------------------------------------------|
G#|---------------------------------------------------------------------------|
E |---------------------------------------------------------------------------|
B |-0-------------------------------------------------------------------------|
F#|-0-0000----0000-0000----0000-0-0-6^----------------------------------------|
B |-0-0000----0000-0000----0000-0-0-------------------------------------------|
      ****    **** ****    **** * *


	
	
Guitar 1
C#|---------------------------------------------------------------------------|
G#|---------------------------------------------------------------------------|
E |---------------------------------------------------------------------------|
B |-0-------------------------------1-----------------------------------------|
F#|-0-0000----0000-0000----0000-0-0-1-----------------------------------------|
B |-0-0000----0000-0000----0000-0-0-1-----------------------------------------|
      ****    **** ****    **** * *

Guitar 2
C#|---------------------------------------------------------------------------|
G#|---------------------------------------------------------------------------|
E |---------------------------------------------------------------------------|
B |-0-------------------------------------------------------------------------|
F#|-0-0000----0000-0000----0000-0-0-6^----------------------------------------|
B |-0-0000----0000-0000----0000-0-0-------------------------------------------|
      ****    **** ****    **** * *


	
	
Guitar 1
C#|---------------------------------------------------------------------------|
G#|---------------------------------------------------------------------------|
E |---------------------------------------------------------------------------|
B |-0-------------------------------1-----------------------------------------|
F#|-0-0000----0000-0000----0000-0-0-1-----------------------------------------|
B |-0-0000----0000-0000----0000-0-0-1-----------------------------------------|
      ***     **** ***     **** * *

Guitar 2
C#|---------------------------------------------------------------------------|
G#|---------------------------------------------------------------------------|
E |---------------------------------------------------------------------------|
B |-0-------------------------------------------------------------------------|
F#|-0-0000----0000-0000----0000-0-0-6^----------------------------------------|
B |-0-0000----0000-0000----0000-0-0-------------------------------------------|
      ***     **** ***     **** * *


	
	
Guitar 1
C#|---------------------------------------------------------------------------|
G#|---------------------------------------------------------------------------|
E |---------------------------------------------------------------------------|
B |-0-------------------------------1-----------------------------------------|
F#|-0-0000----0000-0000----0000-0-0-1-----------------------------------------|
B |-0-0000----0000-0000----0000-0-0-1-----------------------------------------|
      ***     **** ***     **** * *

Guitar 2
C#|---------------------------------------------------------------------------|
G#|---------------------------------------------------------------------------|
E |---------------------------------------------------------------------------|
B |-0-------------------------------------------------------------------------|
F#|-0-0000----0000-0000----0000-0-0-6^----------------------------------------|
B |-0-0000----0000-0000----0000-0-0-------------------------------------------|
      ***     **** ***     **** * *
	
	
	
	
Guitar 1
C#|---------------------------------------------------------------------------|
G#|---------------------------------------------------------------------------|
E |---------------------------------------------------------------------------|
B |-0-------------------------------1-----------------------------------------|
F#|-0-0000----0000-0000----0000-0-0-1-----------------------------------------|
B |-0-0000----0000-0000----0000-0-0-1-----------------------------------------|
      ***     **** ***     **** * *

Guitar 2
C#|---------------------------------------------------------------------------|
G#|---------------------------------------------------------------------------|
E |---------------------------------------------------------------------------|
B |-0-------------------------------------------------------------------------|
F#|-0-0000----0000-0000----0000-0-0-6^----------------------------------------|
B |-0-0000----0000-0000----0000-0-0-------------------------------------------|
      ***     **** ***     **** * *
	
	
	
	
Guitar 1
C#|---------------------------------------------------------------------------|
G#|---------------------------------------------------------------------------|
E |---------------------------------------------------------------------------|
B |-0-------------------------------1---0-------------------------------------|
F#|-0-0000----0000-0000----0000-0-0-1---0-0000--------------------------------|
B |-0-0000----0000-0000----0000-0-0-1---0-0000--------------------------------|
      ***     **** ***     **** * *       ****

Guitar 2
C#|---------------------------------------------------------------------------|
G#|---------------------------------------------------------------------------|
E |---------------------------------------------------------------------------|
B |-0-----------------------------------0-------------------------------------|
F#|-0-0000----0000-0000----0000-0-0-6^--0-0000--------------------------------|
B |-0-0000----0000-0000----0000-0-0-----0-0000--------------------------------|
      ***     **** ***     **** * *       ****
===============================================================================
Tap to rate this tab
# A B C D E F G H I J K L M N O P Q R S T U V W X Y Z