Guitaretab - guitar tabs
Song name
# A B C D E F G H I J K L M N O P Q R S T U V W X Y Z

Throwdown - Never Back Down tab

Song: Never Back Down
Artist: Throwdown
Album: Haymaker(?)
Tunning: Drop B (B-F#-B-E-G#-C#)


awesome, heavy song.
awesome, heavy riffs.
very easy to play.

the hardest part of this 
is getting your guitar to drop b tunning,
which isnít hard to begin with

and I put the palm mutes in,
which is something I donít normally do,
but its a begginer song so I feel that I should

Im positive on the accuracy, as usuall
but any corrections are accepted within reason

ratings/comments are greatly appreciated




Verse
Guitars I,II
C#|-----------------------------------------------------------------|
G#|-----------------------------------------------------------------|
E |-----------------------------------------------------------------|
B |-0-------------------------------0-------------------------------|(x2)
F#|-0-0-0-0-1-0-1-4-1-0-0-0-6-6-3-6-0-0-0-0-1-0-1-4-1-0-0-0-6-6-3-6-|
B |-0-0-0-0-1-0-1-4-1-0-0-0-6-6-3-6-0-0-0-0-1-0-1-4-1-0-0-0-6-6-3-6-|
pm    . . .           . . .           . . .           . . .


Chorus
Guitar I
|-----------------------------------------------------------------|
|-----------------------------------------------------------------|
|-----------------------------------------------------------------|
|-0-------------------------------0-------------------------------|
|-0-0-0-0-1-0-1-4-1-0-0-0-6-6-3-6-0-0-0-0-1-0-1-4-1-0-0-0-6-6-3-6-|
|-0-0-0-0-1-0-1-4-1-0-0-0-6-6-3-6-0-0-0-0-1-0-1-4-1-0-0-0-6-6-3-6-|
|pm . . .           . . .           . . .           . . .
|
|Guitar II
|-----------------------------------------------------------------|
|-----------------------------------------------------------------|
|-----------------------------------------------------------------|
|-0-------------------------------0-------------------------------|
|-0-0-0-0-----------0-0-0-6-6-3-6-0-0-0-0-----------0-0-0-6-6-3-6-|
|-0-0-0-0-----------0-0-0-6-6-3-6-0-0-0-0-----------0-0-0-6-6-3-6-|
pm  . . .           . . .           . . .           . . .


|-----------------------------------------------------------------|
|-----------------------------------------------------------------|
|-----------------------------------------------------------------|
|-0-------------------------------0-------------------------------|
|-0-0-0-0-1-0-1-4-1-0-0-0-6-6-3-6-0-0-0-0-1-0-1-4-1-0-0-0-6-6-3-6-|
|-0-0-0-0-1-0-1-4-1-0-0-0-6-6-3-6-0-0-0-0-1-0-1-4-1-0-0-0-6-6-3-6-|
|pm . . .           . . .           . . .           . . .
|
|-----------------------------------------------------------------|
|-----------------------------------------------------------------|
|-----------------------------------------------------------------|
|-0-------------------------------0-------------------------------|
|-0-0-0-0-----------0-0-0-6-6-3-6-0-0-0-0-----------0-0-0-6-6-3-6-|
|-0-0-0-0-----------0-0-0-6-6-3-6-0-0-0-0-----------0-0-0-6-6-3-6-|
pm  . . .           . . .           . . .           . . . 


Verse II
Both Guitars
|-----------------------------------------------------------------|
|-----------------------------------------------------------------|
|-----------------------------------------------------------------|
|-0-------------------------------0-------------------------------|(x2)
|-0-0-0-0-1-0-1-4-1-0-0-0-6-6-3-6-0-0-0-0-1-0-1-4-1-0-0-0-6-6-3-6-|
|-0-0-0-0-1-0-1-4-1-0-0-0-6-6-3-6-0-0-0-0-1-0-1-4-1-0-0-0-6-6-3-6-|
pm  . . .           . . .           . . .           . . .


ChorusII
guitar I
|-----------------------------------------------------------------|
|-----------------------------------------------------------------|
|-----------------------------------------------------------------|
|-0-------------------------------0-----------------0-----0-----0-|
|-0-0-0-0-1-0-1-4-1-0-0-0-6-6-3-6-0-0-0-0-1-0-1-4---0-----0-----0-|
|-0-0-0-0-1-0-1-4-1-0-0-0-6-6-3-6-0-0-0-0-1-0-1-4---0-----0-----0-|
|pm . . .           . . .           . . .           .     .     .
|
|Guitar II
|-----------------------------------------------------------------|
|-----------------------------------------------------------------|
|-----------------------------------------------------------------|
|-0-------------------------------0-----------------0-----0-----0-|
|-0-0-0-0-----------0-0-0-6-6-3-6-0-0-0-0-----------0-----0-----0-|
|-0-0-0-0-----------0-0-0-6-6-3-6-0-0-0-0-----------0-----0-----0-|
pm  . . .           . . .           . . .           .     .     .

[ Tab from: http://www.guitaretab.com/t/throwdown/93806.html ]
|-----------------------------------------------------------------|
|-----------------------------------------------------------------|
|-----------------------------------------------------------------|
|-0-------------------------------0-------------------------------|
|-0-0-0-0-1-0-1-4-1-0-0-0-6-6-3-6-0-0-0-0-1-0-1-4-1-0-0-0-6-6-3-6-|
|-0-0-0-0-1-0-1-4-1-0-0-0-6-6-3-6-0-0-0-0-1-0-1-4-1-0-0-0-6-6-3-6-|
|pm . . .           . . .           . . .           . . .
|
|-----------------------------------------------------------------|
|-----------------------------------------------------------------|
|-----------------------------------------------------------------|
|-0-------------------------------0-------------------------------|
|-0-0-0-0-----------0-0-0-6-6-3-6-0-0-0-0-----------0-0-0-6-6-3-6-|
|-0-0-0-0-----------0-0-0-6-6-3-6-0-0-0-0-----------0-0-0-6-6-3-6-|
pm  . . .           . . .           . . .           . . .


Bridge
Both guitars
|-----------------------------------------------------------|
|-----------------------------------------------------------|
|-----------------------------------------------------------|
|-----0------0------0--------------0------0------0----------|
|-0-0-0--0-0-0--0-0-0----------0-0-0--0-0-0--0-0-0----------|
|-0-0-0--0-0-0--0-0-0----------0-0-0--0-0-0--0-0-0----------|
pm. .    . .    . .            . .    . .    . . 

|-----------------------------------------------------------|
|-----------------------------------------------------------|
|-----------------------------------------------------------|
|-----0------0------0--------------0------0------0----------|
|-0-0-0--0-0-0--0-0-0----------0-0-0--0-0-0--0-0-0----------|
|-0-0-0--0-0-0--0-0-0----------0-0-0--0-0-0--0-0-0----0-15\-|
pm. .    . .    . .            . .    . .    . .      .

|-----------------------------------------------------------------|
|-----------------------------------------------------------------|
|-----------------------------------------------------------------|
|-----0------0------0------------------0------0------0------------|
|-0-0-0--0-0-0--0-0-0--3-3---------0-0-0--0-0-0--0-0-0--3-3-------|
|-0-0-0--0-0-0--0-0-0------6-6-3---0-0-0--0-0-0--0-0-0------6-6-3-|
pm. .    . .    . .                . .    . .    . . 

|------------------------------------------------------------------------|
|------------------------------------------------------------------------|
|------------------------------------------------------------------------|
|-----0------0------0------------------0------0------0------------(0)----|
|-0-0-0--0-0-0--0-0-0--3-3---------0-0-0--0-0-0--0-0-0------------(0)----|
|-0-0-0--0-0-0--0-0-0------6-6-3---0-0-0--0-0-0--0-0-0------------(0)----|
pm. .    . .    . .                . .    . .    . .


ďitís time to stand your ground!Ē

Breakdown
Both guitars
|---------------------------------------------------------------------|
|---------------------------------------------------------------------|
|---------------------------------------------------------------------|
|---------------------------------------------------------------------|
|-0-0-000-0-0--------0-000----------0-0-000-0-0--------0-000----------|
|-0-0-000-0-0--------0-000-4-00001--0-0-000-0-0--------0-000-4-00001--|
pm. . ... . .        . ...          . . ... . .        . ...

|-------------------------------------------------------------------------|
|-------------------------------------------------------------------------|
|-------------------------------------------------------------------------|
|-------------------------------------------------------------------------|
|-0-0-000-0-0--------0-000----------0-0-000-0-0---------------------------|
|-0-0-000-0-0--------0-000-4-00001--0-0-000-0-0--------0--0--4--4--0--4*~-|
pm. . ... . .        . ...          . . ... . . 

|---------------------------------------------------------------------|
|---------------------------------------------------------------------|
|---------------------------------------------------------------------|
|---------------------------------------------------------------------|
|-0-0-000-0-0--------0-000----------0-0-000-0-0--------0-000----------|
|-0-0-000-0-0--------0-000-4-00001--0-0-000-0-0--------0-000-4-00001--|
pm. . ... . .        . ...          . . ... . .        . ...

|---------------------------------------------------------------------|
|---------------------------------------------------------------------|
|---------------------------------------------------------------------|
|---------------------------------------------------------------------|
|-0-0-000-0-0--------0-000----------0-0-000-0-0--------0-000----------|
|-0-0-000-0-0--------0-000-4-00001--0-0-000-0-0--------0-000-4-00001--|
pm. . ... . .        . ...          . . ... . .        . ...

|---------------|
|---------------|
|---------------|
|---------------|
|-0-0-000-0-0---|
|-0-0-000-0-0---|
pm. . ... . .
Related for Never Back Down tab