Guitaretab - guitar tabs
Song name
# A B C D E F G H I J K L M N O P Q R S T U V W X Y Z

Throwing Muses - Marraige Tree tab

#----------------------------------PLEASE NOTE---------------------------------#
#This file is the author's own work and represents their interpretation of the #
#song. You may only use this file for private study, scholarship, or research. #
#------------------------------------------------------------------------------##
Date: Wed, 15 Nov 1995 00:50:24 -0500 (EST)
From: Edmond Hum 
Subject: TAB: "Marriage Tree" by Throwing Muses

marriage tree

by kristin hersh
from 'house tornado'
performed by throwing muses
transcribed by edmond hum (ehum@inforamp.net) - .oct.29.95.

===========================================================




     [ Intro: A ]
     (first part)              (second part)
 e-------------------------|---------------------|
 b-------------------------|---------------------|
 g-----------0-------------|---------------------|
 d-----3---3---3-0h3---3---|---------------------|
 a---3---0-----------3-----|---2---2h3---2h3-----|
 e-------------------------|-----0-----0-----0---|


     [ Intro: B ]
 e-------------------------|---------------------|
 b-------------------------|---------------------|
 g-----------0-------------|---------------------|
 d-----3---3---3-0h3---3---|-------2---------2---|
 a---3---0-----------3-----|---2-------2-2-------|
 e-------------------------|-----0---------0-----|


   [fret position #3 ]    [fret position #5 ]
 e---------------------|-------------------------|
 b---------------------|-------------------------|
 g-------0---------0---|-------0------0----------| :) ..see the chord pattern?
 d-----3---------2-----|-----5------4------------|
 a---3---------3-------|---5------5--------------| :) ..easy huh?
 e---------------------|-------------------------|

[ Tab from: http://www.guitaretab.com/t/throwing-muses/19456.html ]
   [fret position #10 ]   [fret position #8 ]
 e---------------------|-------------------------|
 b---------------------|-------------------------|
 g---------0-------0---|-------0------0----------| :) ..see the chord pattern?
 d------10-------9-----|-----8------7------------|
 a---10-------10-------|---8------8--------------| :) ..easy huh?
 e---------------------|-------------------------|


==================================================




.intro:  A
.intro:  B

.fret:   3 - 5 - 3 - 5--|
.fret:  10 - 8 - 10 - 8-|
.fret:   5 - 3 - 5 - 3 - 5 - 3

.intro:  A
.intro:  B

.fret:   3 - 5 - 3 - 5-|
.fret:  10 - 8 - 5 - 3-|
.fret:  10 - 8 - 5 - 3-|
.fret:  10 - 8 - 5 - 3-|
.fret:  10 - 8 - 5 - 3-|

.intro: A  -> (first part)

==================================================


---start---

<...fingerpicking guitar part defined above...>

like an old man in a dress
treat me like a twelve year old man
no more hearts

don't know what twenty is
don't know where the tree stands
only follow these hands

<...start strumming...>

--------
Em
F Em
F Em
F - G Em
--------

Em
at midnight i reach for the blind
            A                  B D Em
toward your head but don't touch it

i'll wish i had but when i'm dead
   A                  B    D      Em
at midnight i hit your song - it sings again

don't know what age is

don't know where the tree stands
A               B     D Em
  i only follow these hands

--------
F Em
F Em
F - G Em
--------

Em
i couldn't make you crazy if i tried
           A                  B     D   Em
we've been swinging around the tree - for how long now?
maybe she wants to be cared for
stay home a month here a month there
maybe take to their open roads
maybe take to their open roads
maybe take to their open roads

---------------
A  B D Em
---------------

at the marriage tree
at the marriage tree
at the marriage tree

---end---
Related for Marraige Tree tab