Song name
# A B C D E F G H I J K L M N O P Q R S T U V W X Y Z

Throwing Muses - Not Too Soon tab

It's mostly chords except for half the chorus where you actually need a little skill, 
once you get the timing down it's very easy to play.

x - pic the string but don't put pressure on the fret.

Intro/Verse:
Guitar 1 then 2
e:-7--77-77-x-7--77-77-x-5--55-55-x-7--77-77-x-|
B:-7--77-77-x-7--77-77-x-5--55-55-x-7--77-77-x-|
G:-7--77-77-x-8--88-88-x-6--66-66-x-8--88-88-x-|  4 Times
D:-9--99-99-x-9--99-99-x-7--77-77-x-9--99-99-x-|
A:-7--77-77-x-9--99-99-x-7--77-77-x-9--99-99-x-|
E:-x--xx-xx-x-7--77-77-x-5--55-55-x-7--77-77-x-|
   (guitar 2 comes after this is played 2 times)

Pre-Chorus:
Guitar 1&2
e:----------------------------------|
B:----------------------------------|
G:-99999999-------------------------|
D:-99999999999999997777777799999999-  2 Times
A:-77777777999999997777777799999999-
E:---------777777775555555577777777-
                        "and I said..."
  (strum down moderately fast)
  (it also doesn't hurt to palm mute)

Chorus(1st Half)
Guitar 1&2:
e:-7--77-77-x-7--77-77-x-5-55-55-x-7--77-77-x-|
B:-7--77-77-x-7--77-77-x-5-55-55-x-7--77-77-x-|
G:-7--77-77-x-8--88-88-x-6-66-66-x-8--88-88-x-|
D:-9--99-99-x-9--99-99-x-7-77-77-x-9--99-99-x-|
A:-7--77-77-x-9--99-99-x-7-77-77-x-9--99-99-x-|
E:-x--xx-xx-x-7--77-77-x-5-55-55-x-7--77-77-x-|
    "I know Her!!!!!!!!!!!"

Chorus(2nd Half)/Outro:
Guitar 1
e:-7--77-77-x-7--77-77-x-5-55-55-x-7--77-77-x-|
B:-7--77-77-x-7--77-77-x-5-55-55-x-7--77-77-x-|
G:-7--77-77-x-8--88-88-x-6-66-66-x-8--88-88-x-|
D:-9--99-99-x-9--99-99-x-7-77-77-x-9--99-99-x-|
A:-7--77-77-x-9--99-99-x-7-77-77-x-9--99-99-x-|
E:-x--xx-xx-x-7--77-77-x-5-55-55-x-7--77-77-x-|

Guitar 2
e:--------------------------------------------------|
B:--9-10-9------------------------------------8-8-8-|
G:-9------9------8-9-9-----------------------9-9----|
D:-----------9-11-----11-9-------9-11-9-------------|
A:--------------------------11-12------12-11--------|
E:--------------------------------------------------|
  "aaahhhh"(this guitar part is synchronized with the vocals, and played pretty fast)

Theres a part where the singer is talking and guitar 2 is pretty much playing random 
from the 2nd half of the chorus then actually plays the second part of the chorus, have fun 
it and make it yours.

Song Order:
Intro/Verse
Pre-Chorus
Chorus(1st Half)
Chorus(2nd Half)
Intro/Verse
Pre-Chorus
Chorus(1st Half)
Chorus(2nd Half, played 2 Times)
Talky Interlude
Chorus(2nd Half, played 4 Times)
Verse
Chorus(1st Half)
Chorus(2nd Half, played 5 Times)
END


Comments or Concerns: E-mail me at suckmysabbath@aol.com
Tap to rate this tab
 
# A B C D E F G H I J K L M N O P Q R S T U V W X Y Z