Song name
# A B C D E F G H I J K L M N O P Q R S T U V W X Y Z

Thrown To The Sun - Inward Reflection tab

                              Inward Reflection


                              Thrown to the Sun

                        Ahmet Saracoglu/Bahadir Sarp

                            www.throwntothesun.com


     |--3-|  |--3--|  |--3--|  |--3--|  |--3--|  |--3--|  |--3--|  |--3--|
     Q    E  E  E  E  E  E  E  E  E  E  E  E  E  E  E  E  E  E  E  E  E  E
D||-------------------------------------------------------------------------|
A||-------------------------------------------------------------------------|
F||----------2--------2--------2--------2--------2--------2--------2--------|
C||-------------------------------------------------------------------------|
G||--0----0-----0--0-----0--0-----0--0-----0--0-----0--0-----0--0-----0-----|
D||----------------------------------------------------------------------0--|


  |--3-|  |--3--|  |--3--|  |--3--|  |---3--|  |3|  |---3--|  |3|  |---3--|  |3|
  Q    E  E  E  E  E  E  E  E  E  E  S   S  S  S E  S   S  S  S E  S   S  S  S E
---------------------------------------------------------------------------------|
---------------------------------------------------------------------------------|
----------2--------2--------2--------7h-10p-7p-0---------------------------------|
-------------------------------------------------8--7h-10p-7p-0------------------|
----------------------------------------------------------------8--7h-10p-7p-0---|
--1----1-----1--1-----1--1-----1--1--------------------------------------------8-|


  |--3-|  |--3--|  |--3--|  |--3--|  |--3--|  |--3--|  |--3--|  |--3--|
  Q    E  E  E  E  E  E  E  E  E  E  E  E  E  E  E  E  E  E  E  E  E  E
-------------------------------------------------------------------------|
-------------------------------------------------------------------------|
----------2--------2--------2--------2--------2--------2--------2--------|
-------------------------------------------------------------------------|
--0----0-----0--0-----0--0-----0--0-----0--0-----0--0-----0--0-----0-----|
----------------------------------------------------------------------0--|


  |--3-|  |--3--|  |--3--|  |--3--|  |---3--|  |3|  |---3--|  |3|  |---3--|  |3|
  Q    E  E  E  E  E  E  E  E  E  E  S   S  S  S E  S   S  S  S E  S   S  S  S E
---------------------------------------------------------------------------------|
---------------------------------------------------------------------------------|
----------2--------2--------2--------7h-10p-7p-0---------------------------------|
-------------------------------------------------8--7h-10p-7p-0------------------|
----------------------------------------------------------------8--7h-10p-7p-0---|
--1----1-----1--1-----1--1-----1--1--------------------------------------------8-|


  |--3-|  |--3--|  |--3--|  |--3--|  |--3--|  |--3--|  |--3--|  |--3--|
  Q    E  E  E  E  E  E  E  E  E  E  E  E  E  E  E  E  E  E  E  E  E  E
-------------------------------------------------------------------------|
-------------------------------------------------------------------------|
----------2--------2--------2--------4--------4--------4--------4--------|
-------------------------------------------------------------------------|
--0----0-----0--0-----0--0-----0--0-----0--0-----0--0-----0--0-----0-----|
----------------------------------------------------------------------0--|


  |--3-|  |--3--|  |--3--|  |--3--|  |---3--|  |3|  |---3--|  |3|  |---3--|  |3|
  Q    E  E  E  E  E  E  E  E  E  E  S   S  S  S E  S   S  S  S E  S   S  S  S E
---------------------------------------------------------------------------------|
---------------------------------------------------------------------------------|
----------5--------5--------5--------7h-10p-7p-0---------------------------------|
-------------------------------------------------8--7h-10p-7p-0------------------|
----------------------------------------------------------------8--7h-10p-7p-0---|
--1----1-----1--1-----1--1-----1--1--------------------------------------------8-|


  |--3-|  |--3--|  |--3--|  |--3--|  |--3--|  |--3--|  |--3--|  |--3--|
  Q    E  E  E  E  E  E  E  E  E  E  E  E  E  E  E  E  E  E  E  E  E  E
-------------------------------------------------------------------------|
-------------------------------------------------------------------------|
----------5--------5--------5--------7--------7--------7--------7--------|
-------------------------------------------------------------------------|
--0----0-----0--0-----0--0-----0--0-----0--0-----0--0-----0--0-----0-----|
----------------------------------------------------------------------0--|


  |--3-|   |--3--|   |--3--|   |--3--|  |---3--|  |3|  |---3--|  |3|  |---3--|
  Q    E   E  E  E   E  E  E   E  E  E  S   S  S  S E  S   S  S  S E  S   S  S
--------------------------------------------------------------------------------|
--------------------------------------------------------------------------------|
----------10--------10--------10--------7h-10p-7p-0-----------------------------|
----------------------------------------------------8--7h-10p-7p-0--------------|
-------------------------------------------------------------------8--7h-10p-7p-|
--1----1------1--1------1--1------1--1------------------------------------------|


-------|
-------|
-------|
-------|
-------|
-------|


                                                             T   T      T   T
  |--3-|   |--3--|   |--3--|   |--3--|   |--3--|   |--3--|   |---3--|   |---3--|
  Q    E   E  E  E   E  E  E   E  E  E   E  E  E   E  E  E   E   E  E   E   E  E
---------------------------------------------------------------------------------|
---------------------------------------------------------------------------------|
---------------------------------------------------------------------------------|
---------------------------------------------------------------------------------|
--0----0--12--0--0--12--0--0--12--0--0--12--0--0--12--0--0--20--12--0--20--12--0-|
---------------------------------------------------------------------------------|


  |--3-|   |--3--|   |--3--|   |--3--|  |--3--|  |--3--|  |--3--|  |---3--|
  Q    E   E  E  E   E  E  E   E  E  E  E  E  E  E  E  E  E  E  E  E   E  E
-----------------------------------------------------------------------------|
-----------------------------------------------------------------------------|
-----------------------------------------------------------------------------|
----------------------------------------------------------6------------------|
--0----0--12--0--0--12--0--0--12--0--0-----7--6--4--6--7-----7---------------|
----------------------------------------4-----------------------9--8p--0-----|


                                                             T   T      T   T
  |--3-|   |--3--|   |--3--|   |--3--|   |--3--|   |--3--|   |---3--|   |---3--|
  Q    E   E  E  E   E  E  E   E  E  E   E  E  E   E  E  E   E   E  E   E   E  E
---------------------------------------------------------------------------------|
---------------------------------------------------------------------------------|
---------------------------------------------------------------------------------|
---------------------------------------------------------------------------------|
--0----0--12--0--0--12--0--0--12--0--0--12--0--0--12--0--0--20--12--0--20--12--0-|
---------------------------------------------------------------------------------|


  |--3-|   |--3--|   |--3--|   |--3--|  |--3--|  |--3--|  |--3--|  |---3--|
  Q    E   E  E  E   E  E  E   E  E  E  E  E  E  E  E  E  E  E  E  E   E  E
-----------------------------------------------------------------------------|
-----------------------------------------------------------------------------|
-----------------------------------------------------------------------------|
----------------------------------------------------------6------------------|
--0----0--12--0--0--12--0--0--12--0--0-----7--6--4--6--7-----7---------------|
----------------------------------------4-----------------------9--8p--0-----|


  |--3--|  |--3--|  |--3--|  |---3--|
  E  E  E  E  E  E  E  E  E  E   E  E
---------------------------------------|
---------------------------------------|
---------------------------------------|
--------------------6------------------|
-----7--6--4--6--7-----7---------------|
--4-----------------------9--8p--0-----|


                                                                     PH
    |--3-|  |--3--|  |--3--|  |--3--|  |--3--|  |--3--|  |--3--|     |---3--|
    Q    E  E  E  E  E  E  E  E  E  E  E  E  E  E  E  E  E  E  E     E   E  E
|------------------------------------------------------------------------------|
|------------------------------------------------------------------------------|
|*-----------------------------------------------------------------------------|
|*-------------------------------------------------------9--------<>10~--L--L--|
|---0----0--8--0--0--8--0--0--8--0--0--8--0--0--8--0--0-----0--0---------------|
|------------------------------------------------------------------------------|


  |--3-|  |--3--|  |--3--|  |--3--|  |--3--|  |--3--|  |---3--|  |--3--|
  Q    E  E  E  E  E  E  E  E  E  E  E  E  E  E  E  E  E   E  E  E  E  E
---------------------------------------------------------------------------||
---------------------------------------------------------------------------||
--------------------------------------------------------------------------*||
--------------------------------------------------------------------------*||
--0----0--8--0--0--8--0--0--8--0--0--5--L--7--8--7--5----------------------||
-------------------------------------------------------4~--L--L--L--L--L---||


  |--3-|  |--3--|  |--3--|  |--3--|  |--3--|  |--3--|  |--3--|  |--3--|
  Q    E  E  E  E  E  E  E  E  E  E  E  E  E  E  E  E  E  E  E  E  E  E
-------------------------------------------------------------------------|
-------------------------------------------------------------------------|
----------2--------2--------2--------2--------2--------2--------2--------|
-------------------------------------------------------------------------|
--0----0-----0--0-----0--0-----0--0-----0--0-----0--0-----0--0-----0-----|
----------------------------------------------------------------------0--|


  |--3-|  |--3--|  |--3--|  |--3--|  |---3--|  |3|  |---3--|  |3|  |---3--|  |3|
  Q    E  E  E  E  E  E  E  E  E  E  S   S  S  S E  S   S  S  S E  S   S  S  S E
---------------------------------------------------------------------------------|
---------------------------------------------------------------------------------|
----------2--------2--------2--------7h-10p-7p-0---------------------------------|
-------------------------------------------------8--7h-10p-7p-0------------------|
----------------------------------------------------------------8--7h-10p-7p-0---|
--1----1-----1--1-----1--1-----1--1--------------------------------------------8-|


  |--3-|  |--3--|  |--3--|  |--3--|  |--3--|  |--3--|  |--3--|  |--3--|
  Q    E  E  E  E  E  E  E  E  E  E  E  E  E  E  E  E  E  E  E  E  E  E
-------------------------------------------------------------------------|
-------------------------------------------------------------------------|
----------2--------2--------2--------2--------2--------2--------2--------|
-------------------------------------------------------------------------|
--0----0-----0--0-----0--0-----0--0-----0--0-----0--0-----0--0-----0-----|
----------------------------------------------------------------------0--|


  |--3-|  |--3--|  |--3--|  |--3--|  |---3--|  |3|  |---3--|  |3|  |---3--|  |3|
  Q    E  E  E  E  E  E  E  E  E  E  S   S  S  S E  S   S  S  S E  S   S  S  S E
---------------------------------------------------------------------------------|
---------------------------------------------------------------------------------|
----------2--------2--------2--------7h-10p-7p-0---------------------------------|
-------------------------------------------------8--7h-10p-7p-0------------------|
----------------------------------------------------------------8--7h-10p-7p-0---|
--1----1-----1--1-----1--1-----1--1--------------------------------------------8-|


  |--3-|  |--3--|  |--3--|  |--3--|  |--3--|  |--3--|  |--3--|  |--3--|
  Q    E  E  E  E  E  E  E  E  E  E  E  E  E  E  E  E  E  E  E  E  E  E
-------------------------------------------------------------------------|
-------------------------------------------------------------------------|
----------2--------2--------2--------4--------4--------4--------4--------|
-------------------------------------------------------------------------|
--0----0-----0--0-----0--0-----0--0-----0--0-----0--0-----0--0-----0-----|
----------------------------------------------------------------------0--|


  |--3-|  |--3--|  |--3--|  |--3--|  |---3--|  |3|  |---3--|  |3|  |---3--|  |3|
  Q    E  E  E  E  E  E  E  E  E  E  S   S  S  S E  S   S  S  S E  S   S  S  S E
---------------------------------------------------------------------------------|
---------------------------------------------------------------------------------|
----------5--------5--------5--------7h-10p-7p-0---------------------------------|
-------------------------------------------------8--7h-10p-7p-0------------------|
----------------------------------------------------------------8--7h-10p-7p-0---|
--1----1-----1--1-----1--1-----1--1--------------------------------------------8-|


  |--3-|  |--3--|  |--3--|  |--3--|  |--3--|  |--3--|  |--3--|  |--3--|
  Q    E  E  E  E  E  E  E  E  E  E  E  E  E  E  E  E  E  E  E  E  E  E
-------------------------------------------------------------------------|
-------------------------------------------------------------------------|
----------5--------5--------5--------7--------7--------7--------7--------|
-------------------------------------------------------------------------|
--0----0-----0--0-----0--0-----0--0-----0--0-----0--0-----0--0-----0-----|
----------------------------------------------------------------------0--|


  |--3-|   |--3--|   |--3--|   |--3--|  |---3--|  |3|  |---3--|  |3|  |---3--|
  Q    E   E  E  E   E  E  E   E  E  E  S   S  S  S E  S   S  S  S E  S   S  S
--------------------------------------------------------------------------------|
--------------------------------------------------------------------------------|
----------10--------10--------10--------7h-10p-7p-0-----------------------------|
----------------------------------------------------8--7h-10p-7p-0--------------|
-------------------------------------------------------------------8--7h-10p-7p-|
--1----1------1--1------1--1------1--1------------------------------------------|


                                                             T   T      T   T
  |--3-|   |--3--|   |--3--|   |--3--|   |--3--|   |--3--|   |---3--|   |---3--|
  Q    E   E  E  E   E  E  E   E  E  E   E  E  E   E  E  E   E   E  E   E   E  E
---------------------------------------------------------------------------------|
---------------------------------------------------------------------------------|
---------------------------------------------------------------------------------|
---------------------------------------------------------------------------------|
--0----0--12--0--0--12--0--0--12--0--0--12--0--0--12--0--0--20--12--0--20--12--0-|
---------------------------------------------------------------------------------|


  |--3-|   |--3--|   |--3--|   |--3--|  |--3--|  |--3--|  |--3--|  |---3--|
  Q    E   E  E  E   E  E  E   E  E  E  E  E  E  E  E  E  E  E  E  E   E  E
-----------------------------------------------------------------------------|
-----------------------------------------------------------------------------|
-----------------------------------------------------------------------------|
----------------------------------------------------------6------------------|
--0----0--12--0--0--12--0--0--12--0--0-----7--6--4--6--7-----7---------------|
----------------------------------------4-----------------------9--8p--0-----|


                                                             T   T      T   T
  |--3-|   |--3--|   |--3--|   |--3--|   |--3--|   |--3--|   |---3--|   |---3--|
  Q    E   E  E  E   E  E  E   E  E  E   E  E  E   E  E  E   E   E  E   E   E  E
---------------------------------------------------------------------------------|
---------------------------------------------------------------------------------|
---------------------------------------------------------------------------------|
---------------------------------------------------------------------------------|
--0----0--12--0--0--12--0--0--12--0--0--12--0--0--12--0--0--20--12--0--20--12--0-|
---------------------------------------------------------------------------------|


  |--3-|   |--3--|   |--3--|   |--3--|  |--3--|  |--3--|  |--3--|  |---3--|
  Q    E   E  E  E   E  E  E   E  E  E  E  E  E  E  E  E  E  E  E  E   E  E
-----------------------------------------------------------------------------|
-----------------------------------------------------------------------------|
-----------------------------------------------------------------------------|
----------------------------------------------------------6------------------|
--0----0--12--0--0--12--0--0--12--0--0-----7--6--4--6--7-----7---------------|
----------------------------------------4-----------------------9--8p--0-----|


  |--3--|  |--3--|  |--3--|  |---3--|
  E  E  E  E  E  E  E  E  E  E   E  E
---------------------------------------|
---------------------------------------|
---------------------------------------|
--------------------6------------------|
-----7--6--4--6--7-----7---------------|
--4-----------------------9--8p--0-----|


                                                                     PH
    |--3-|  |--3--|  |--3--|  |--3--|  |--3--|  |--3--|  |--3--|     |---3--|
    Q    E  E  E  E  E  E  E  E  E  E  E  E  E  E  E  E  E  E  E     E   E  E
|------------------------------------------------------------------------------|
|------------------------------------------------------------------------------|
|*-----------------------------------------------------------------------------|
|*-------------------------------------------------------9--------<>10~--L--L--|
|---0----0--8--0--0--8--0--0--8--0--0--8--0--0--8--0--0-----0--0---------------|
|------------------------------------------------------------------------------|


  |--3-|  |--3--|  |--3--|  |--3--|  |--3--|  |--3--|  |---3--|  |--3--|
  Q    E  E  E  E  E  E  E  E  E  E  E  E  E  E  E  E  E   E  E  E  E  E
---------------------------------------------------------------------------||
---------------------------------------------------------------------------||
--------------------------------------------------------------------------*||
--------------------------------------------------------------------------*||
--0----0--8--0--0--8--0--0--8--0--0--5--L--7--8--7--5----------------------||
-------------------------------------------------------4~--L--L--L--L--L---||


  |--3-|  |--3--|  |--3--|  |--3--|  |--3--|  |--3--|  |--3--|  |--3--|
  Q    E  E  E  E  E  E  E  E  E  E  E  E  E  E  E  E  E  E  E  E  E  E
-------------------------------------------------------------------------|
-------------------------------------------------------------------------|
----------2--------2--------2--------2--------2--------2--------2--------|
-------------------------------------------------------------------------|
--0----0-----0--0-----0--0-----0--0-----0--0-----0--0-----0--0-----0-----|
----------------------------------------------------------------------0--|


  |--3-|  |--3--|  |--3--|  |--3--|  |---3--|  |3|  |---3--|  |3|  |---3--|  |3|
  Q    E  E  E  E  E  E  E  E  E  E  S   S  S  S E  S   S  S  S E  S   S  S  S E
---------------------------------------------------------------------------------|
---------------------------------------------------------------------------------|
----------2--------2--------2--------7h-10p-7p-0---------------------------------|
-------------------------------------------------8--7h-10p-7p-0------------------|
----------------------------------------------------------------8--7h-10p-7p-0---|
--1----1-----1--1-----1--1-----1--1--------------------------------------------8-|


  |--3-|  |--3--|  |--3--|  |--3--|  |--3--|  |--3--|  |--3--|  |--3--|
  Q    E  E  E  E  E  E  E  E  E  E  E  E  E  E  E  E  E  E  E  E  E  E
-------------------------------------------------------------------------|
-------------------------------------------------------------------------|
----------2--------2--------2--------2--------2--------2--------2--------|
-------------------------------------------------------------------------|
--0----0-----0--0-----0--0-----0--0-----0--0-----0--0-----0--0-----0-----|
----------------------------------------------------------------------0--|


  |--3-|  |--3--|  |--3--|  |--3--|  |---3--|  |3|  |---3--|  |3|  |---3--|  |3|
  Q    E  E  E  E  E  E  E  E  E  E  S   S  S  S E  S   S  S  S E  S   S  S  S E
---------------------------------------------------------------------------------|
---------------------------------------------------------------------------------|
----------2--------2--------2--------7h-10p-7p-0---------------------------------|
-------------------------------------------------8--7h-10p-7p-0------------------|
----------------------------------------------------------------8--7h-10p-7p-0---|
--1----1-----1--1-----1--1-----1--1--------------------------------------------8-|


  |--3-|  |--3--|  |--3--|  |--3--|  |--3--|  |--3--|  |--3--|  |--3--|
  Q    E  E  E  E  E  E  E  E  E  E  E  E  E  E  E  E  E  E  E  E  E  E
-------------------------------------------------------------------------|
-------------------------------------------------------------------------|
----------2--------2--------2--------4--------4--------4--------4--------|
-------------------------------------------------------------------------|
--0----0-----0--0-----0--0-----0--0-----0--0-----0--0-----0--0-----0-----|
----------------------------------------------------------------------0--|


  |--3-|  |--3--|  |--3--|  |--3--|  |---3--|  |3|  |---3--|  |3|  |---3--|  |3|
  Q    E  E  E  E  E  E  E  E  E  E  S   S  S  S E  S   S  S  S E  S   S  S  S E
---------------------------------------------------------------------------------|
---------------------------------------------------------------------------------|
----------5--------5--------5--------7h-10p-7p-0---------------------------------|
-------------------------------------------------8--7h-10p-7p-0------------------|
----------------------------------------------------------------8--7h-10p-7p-0---|
--1----1-----1--1-----1--1-----1--1--------------------------------------------8-|


  |--3-|  |--3--|  |--3--|  |--3--|  |--3--|  |--3--|  |--3--|  |--3--|
  Q    E  E  E  E  E  E  E  E  E  E  E  E  E  E  E  E  E  E  E  E  E  E
-------------------------------------------------------------------------|
-------------------------------------------------------------------------|
----------5--------5--------5--------7--------7--------7--------7--------|
-------------------------------------------------------------------------|
--0----0-----0--0-----0--0-----0--0-----0--0-----0--0-----0--0-----0-----|
----------------------------------------------------------------------0--|


  |--3-|   |--3--|   |--3--|   |--3--|  |---3--|  |3|  |---3--|  |3|  |---3--|
  Q    E   E  E  E   E  E  E   E  E  E  S   S  S  S E  S   S  S  S E  S   S  S
--------------------------------------------------------------------------------|
--------------------------------------------------------------------------------|
----------10--------10--------10--------7h-10p-7p-0-----------------------------|
----------------------------------------------------8--7h-10p-7p-0--------------|
-------------------------------------------------------------------8--7h-10p-7p-|
--1----1------1--1------1--1------1--1------------------------------------------|


  E  E  E  E  E  E  E  E  E  E  E  E  E  E  E  E
--------------------------------------------------|
--------------------------------------------------|
--------------------------------------------------|
--7--L--L--L--L--L--L--L--6--L--L--L--3--L--6--L--|
--5--L--L--L--L--L--L--L--4--L--L--L--1--L--4--L--|
--5--L--L--L--L--L--L--L--4--L--L--L--1--L--4--L--|


  E  E  E  E  E  E  E  E  E  E  E  E  E  E  E  E
--------------------------------------------------|
--------------------------------------------------|
--------------------------------------------------|
--7--L--L--L--L--L--L--L--6--L--L--L--3--L--5--L--|
--5--L--L--L--L--L--L--L--4--L--L--L--1--L--3--L--|
--5--L--L--L--L--L--L--L--4--L--L--L--1--L--3--L--|


        PM      PM         PM PM
  E  E  E  Q    S  S E  E  S  S  S  S S S S S S S S S S  S S S
---------------------------------------------------------------|
---------------------------------------------------------------|
------------------------------------------0-L------------------|
--2--2-----2---------2--2-------------1-L-----1-L--------------|
--2--2-----2---------2--2--------2h-3-------------3-L----------|
--0--0--0--0----0--L-0--0--0--0-----------------------2~-L-L-0-|


        PM      PM         PM PM
  E  E  E  Q    S  S E  E  S  S  S  S S S S S S S S S S S S S
--------------------------------------------------------------|
----------------------------------------------0-L-1-L---------|
------------------------------------------0-L---------0-L-L-L-|
--2--2-----2---------2--2-------------1-L---------------------|
--2--2-----2---------2--2--------2h-3-------------------------|
--0--0--0--0----0--L-0--0--0--0-------------------------------|


        PM      PM         PM PM
  E  E  E  Q    S  S E  E  S  S  S  S S S S S S S S S S  S S S
---------------------------------------------------------------|
---------------------------------------------------------------|
------------------------------------------0-L------------------|
--2--2-----2---------2--2-------------1-L-----1-L--------------|
--2--2-----2---------2--2--------2h-3-------------3-L----------|
--0--0--0--0----0--L-0--0--0--0-----------------------2~-L-L-0-|


        PM      PM         PM PM
  E  E  E  Q    S  S E  E  S  S  S  S S S S S S S S S S S S S
--------------------------------------------------------------|
----------------------------------------------0-L-1-L---------|
------------------------------------------0-L---------0-L-L-L-|
--2--2-----2---------2--2-------------1-L---------------------|
--2--2-----2---------2--2--------2h-3-------------------------|
--0--0--0--0----0--L-0--0--0--0-------------------------------|


        PM      PM         PM PM
  E  E  E  Q    S  S E  E  S  S  S  S S S S S S S S S S  S S S
---------------------------------------------------------------|
---------------------------------------------------------------|
------------------------------------------0-L------------------|
--2--2-----2---------2--2-------------1-L-----1-L--------------|
--2--2-----2---------2--2--------2h-3-------------3-L----------|
--0--0--0--0----0--L-0--0--0--0-----------------------2~-L-L-0-|


        PM      PM         PM PM
  E  E  E  Q    S  S E  E  S  S  S  S S S S S S S S S S S S S
--------------------------------------------------------------|
----------------------------------------------0-L-1-L---------|
------------------------------------------0-L---------0-L-L-L-|
--2--2-----2---------2--2-------------1-L---------------------|
--2--2-----2---------2--2--------2h-3-------------------------|
--0--0--0--0----0--L-0--0--0--0-------------------------------|


        PM      PM         PM PM
  E  E  E  Q    S  S E  E  S  S  S  S S S S S S S S S S  S S S
---------------------------------------------------------------|
---------------------------------------------------------------|
------------------------------------------0-L------------------|
--2--2-----2---------2--2-------------1-L-----1-L--------------|
--2--2-----2---------2--2--------2h-3-------------3-L----------|
--0--0--0--0----0--L-0--0--0--0-----------------------2~-L-L-0-|


        PM      PM         PM PM
  E  E  E  Q    S  S E  E  S  S  S  S S S S S S S S S S S S S
--------------------------------------------------------------|
----------------------------------------------0-L-1-L---------|
------------------------------------------0-L---------0-L-L-L-|
--2--2-----2---------2--2-------------1-L---------------------|
--2--2-----2---------2--2--------2h-3-------------------------|
--0--0--0--0----0--L-0--0--0--0-------------------------------|


        PM      PM         PM PM
  E  E  E  Q    S  S E  E  S  S  S  S S S S S S S S S S  S S S
---------------------------------------------------------------|
---------------------------------------------------------------|
------------------------------------------0-L------------------|
--2--2-----2---------2--2-------------1-L-----1-L--------------|
--2--2-----2---------2--2--------2h-3-------------3-L----------|
--0--0--0--0----0--L-0--0--0--0-----------------------2~-L-L-0-|


        PM      PM         PM PM
  E  E  E  Q    S  S E  E  S  S  S  S S S S S S S S S S S S S
--------------------------------------------------------------|
----------------------------------------------0-L-1-L---------|
------------------------------------------0-L---------0-L-L-L-|
--2--2-----2---------2--2-------------1-L---------------------|
--2--2-----2---------2--2--------2h-3-------------------------|
--0--0--0--0----0--L-0--0--0--0-------------------------------|


                      |--3--|  |--3--|  |--3--|  |---3--|  |--3--|
  W                   E  E  E  E  E  E  E  E  E  E   E  E  E  E  E
-------------------|------------------------------------------------|
-------------------|------------------------------------------------|
-------------------|------------------------------------------------|
--2----------------|--------------------6---------------------------|
--2----------------|-----7--6--4--6--7-----7------------------------|
--0----------------|--4-----------------------9--8p--0--------------|


  |--3-|  |--3--|  |--3--|  |--3--|  |--3--|  |--3--|  |--3--|  |---3--|
  Q    E  E  E  E  E  E  E  E  E  E  E  E  E  E  E  E  E  E  E  E   E  E
--------------------------------------------------------------------------|
--------------------------------------------------------------------------|
----------2--------2--------2---------------------------------------------|
-------------------------------------------------------6------------------|
--0----0-----0--0-----0--0-----0--0-----7--6--4--6--7-----7---------------|
-------------------------------------4-----------------------9--8p--0-----|


  |--3-|  |--3--|  |--3--|  |--3--|  |--3--|  |--3--|  |--3--|  |---3--|
  Q    E  E  E  E  E  E  E  E  E  E  E  E  E  E  E  E  E  E  E  E   E  E
--------------------------------------------------------------------------|
--------------------------------------------------------------------------|
----------2--------2--------2---------------------------------------------|
-------------------------------------------------------6------------------|
--0----0-----0--0-----0--0-----0--0-----7--6--4--6--7-----7---------------|
-------------------------------------4-----------------------9--8p--0-----|


  |--3-|  |--3--|  |--3--|  |--3--|  |--3--|  |--3--|  |--3--|  |---3--|
  Q    E  E  E  E  E  E  E  E  E  E  E  E  E  E  E  E  E  E  E  E   E  E
--------------------------------------------------------------------------|
--------------------------------------------------------------------------|
----------2--------2--------2---------------------------------------------|
-------------------------------------------------------6------------------|
----------------------------------------7--6--4--6--7-----7---------------|
--1----1-----1--1-----1--1-----1--1--4-----------------------9--8p--0-----|


  |--3-|  |--3--|  |--3--|  |--3--|  |--3-|  |--3--|  |--3--|  |--3--|
  Q    E  E  E  E  E  E  E  E  E  E  Q    E  E  E  E  E  E  E  E  E  E
------------------------------------------------------------------------|
------------------------------------------------------------------------|
------------------------------------------------------------------------|
----------5--------5--------5----------------6--------6--------6--------|
------------------------------------------------------------------------|
--3----3-----3--3-----3--3-----3--3--4----4-----4--4-----4--4-----4--4--|


  |--3-|  |--3--|  |--3--|  |--3--|  |--3--|  |--3--|  |--3--|  |--3--|
  Q    E  E  E  E  E  E  E  E  E  E  E  E  E  E  E  E  E  E  E  E  E  E
-------------------------------------------------------------------------|
-------------------------------------------------------------------------|
----------2--------2--------2--------2--------2--------2--------2--------|
-------------------------------------------------------------------------|
--0----0-----0--0-----0--0-----0--0-----0--0-----0--0-----0--0-----0-----|
----------------------------------------------------------------------0--|


  |--3-|  |--3--|  |--3--|  |--3--|  |---3--|  |3|  |---3--|  |3|  |---3--|  |3|
  Q    E  E  E  E  E  E  E  E  E  E  S   S  S  S E  S   S  S  S E  S   S  S  S E
---------------------------------------------------------------------------------|
---------------------------------------------------------------------------------|
----------2--------2--------2--------7h-10p-7p-0---------------------------------|
-------------------------------------------------8--7h-10p-7p-0------------------|
----------------------------------------------------------------8--7h-10p-7p-0---|
--1----1-----1--1-----1--1-----1--1--------------------------------------------8-|


  |--3-|  |--3--|  |--3--|  |--3--|  |--3--|  |--3--|  |--3--|  |--3--|
  Q    E  E  E  E  E  E  E  E  E  E  E  E  E  E  E  E  E  E  E  E  E  E
-------------------------------------------------------------------------|
-------------------------------------------------------------------------|
----------2--------2--------2--------2--------2--------2--------2--------|
-------------------------------------------------------------------------|
--0----0-----0--0-----0--0-----0--0-----0--0-----0--0-----0--0-----0-----|
----------------------------------------------------------------------0--|


  |--3-|  |--3--|  |--3--|  |--3--|  |---3--|  |3|  |---3--|  |3|  |---3--|  |3|
  Q    E  E  E  E  E  E  E  E  E  E  S   S  S  S E  S   S  S  S E  S   S  S  S E
---------------------------------------------------------------------------------|
---------------------------------------------------------------------------------|
----------2--------2--------2--------7h-10p-7p-0---------------------------------|
-------------------------------------------------8--7h-10p-7p-0------------------|
----------------------------------------------------------------8--7h-10p-7p-0---|
--1----1-----1--1-----1--1-----1--1--------------------------------------------8-|


  |--3-|  |--3--|  |--3--|  |--3--|  |--3--|  |--3--|  |--3--|  |--3--|
  Q    E  E  E  E  E  E  E  E  E  E  E  E  E  E  E  E  E  E  E  E  E  E
-------------------------------------------------------------------------|
-------------------------------------------------------------------------|
----------2--------2--------2--------4--------4--------4--------4--------|
-------------------------------------------------------------------------|
--0----0-----0--0-----0--0-----0--0-----0--0-----0--0-----0--0-----0-----|
----------------------------------------------------------------------0--|


  |--3-|  |--3--|  |--3--|  |--3--|  |---3--|  |3|  |---3--|  |3|  |---3--|  |3|
  Q    E  E  E  E  E  E  E  E  E  E  S   S  S  S E  S   S  S  S E  S   S  S  S E
---------------------------------------------------------------------------------|
---------------------------------------------------------------------------------|
----------5--------5--------5--------7h-10p-7p-0---------------------------------|
-------------------------------------------------8--7h-10p-7p-0------------------|
----------------------------------------------------------------8--7h-10p-7p-0---|
--1----1-----1--1-----1--1-----1--1--------------------------------------------8-|


  |--3-|  |--3--|  |--3--|  |--3--|  |--3--|  |--3--|  |--3--|  |--3--|
  Q    E  E  E  E  E  E  E  E  E  E  E  E  E  E  E  E  E  E  E  E  E  E
-------------------------------------------------------------------------|
-------------------------------------------------------------------------|
----------5--------5--------5--------7--------7--------7--------7--------|
-------------------------------------------------------------------------|
--0----0-----0--0-----0--0-----0--0-----0--0-----0--0-----0--0-----0-----|
----------------------------------------------------------------------0--|


  |--3-|   |--3--|   |--3--|   |--3--|  |---3--|  |3|  |---3--|  |3|  |---3--|
  Q    E   E  E  E   E  E  E   E  E  E  S   S  S  S E  S   S  S  S E  S   S  S
--------------------------------------------------------------------------------|
--------------------------------------------------------------------------------|
----------10--------10--------10--------7h-10p-7p-0-----------------------------|
----------------------------------------------------8--7h-10p-7p-0--------------|
-------------------------------------------------------------------8--7h-10p-7p-|
--1----1------1--1------1--1------1--1------------------------------------------|


  |---3--|  |3|  |---3--|  |3|  |---3--|  |3|  |--3--|  |3|  |--3--|  |--3--|  |
  S   S  S  S E  S   S  S  S E  S   S  S  S E  S  S  S  S E  E  E  E  E  E  E  E
---------------------------------------------------------------------------------|
---------------------------------------------------------------------------------|
--7h-10p-7p-0--------------------------------------------------------------------|
--------------8--7h-10p-7p-0---------------------------------7--L--L--L--L--L----|L
-----------------------------8--7h-10p-7p-0----3h-6p-3p-0----7--L--L--L--L--L----|L
--------------------------------------------8-------------4--5--L--L--L--L--L----|L

 www.throwntothesun.com
Tap to rate this tab
# A B C D E F G H I J K L M N O P Q R S T U V W X Y Z