Song name
# A B C D E F G H I J K L M N O P Q R S T U V W X Y Z

Thrown To The Sun - The Ocean Beneath The Universe tab

                        The Ocean Beneath the Universe                          


                             Thrown to the Sun

                       Ahmet Saracoglu/Bahadir Sarp

                          www.throwntothesun.com



             E  S S S S S S S S S S S  S S S S S S  S S S S S  
D||-------|---------------------------------------------------|
A||-------|---------------------------------------------0-----|
F||-------|-------------------------------------------3---3---|
C||-------|-------5-----5-----5-----5h-6---6-----5h-6-------6-|
G||-------|---------------------------------------------------|
D||-------|--4--4---4-4---4-4---4-4------4---4-4--------------|


                             PM                    
  E  S S S S S S S S S S S S S  S S S S S S S S S  
--------------------------------------------------|
--------------------------------------------------|
--------------------------------------------------|
-------5-----5-----5-----5------------------------|
----------------------------------------------4---|
--4--4---4-4---4-4---4-4---0-0--0-0-0-0-0-0-6---6-|


  E  S S S S S S S S S S S  S S S S S S  S S S S S  
---------------------------------------------------|
---------------------------------------------0-----|
-------------------------------------------3---3---|
-------5-----5-----5-----5h-6---6-----5h-6-------6-|
---------------------------------------------------|
--4--4---4-4---4-4---4-4------4---4-4--------------|


                             PM                    
  E  S S S S S S S S S S S S S  S S S S S S S S S  
--------------------------------------------------|
--------------------------------------------------|
--------------------------------------------------|
-------5-----5-----5-----5------------------------|
----------------------------------------------4---|
--4--4---4-4---4-4---4-4---0-0--0-0-0-0-0-0-6---6-|


  E  S S S S S S S S S S S  S S S S S S  S S S S S  
---------------------------------------------------|
---------------------------------------------0-----|
-------------------------------------------3---3---|
-------5-----5-----5-----5h-6---6-----5h-6-------6-|
---------------------------------------------------|
--4--4---4-4---4-4---4-4------4---4-4--------------|


                             PM                    
  E  S S S S S S S S S S S S S  S S S S S S S S S  
--------------------------------------------------|
--------------------------------------------------|
--------------------------------------------------|
-------5-----5-----5-----5------------------------|
----------------------------------------------4---|
--4--4---4-4---4-4---4-4---0-0--0-0-0-0-0-0-6---6-|


  E  S S S S S S S S S S S  S S S S S S  S S S S S  
---------------------------------------------------|
---------------------------------------------0-----|
-------------------------------------------3---3---|
-------5-----5-----5-----5h-6---6-----5h-6-------6-|
---------------------------------------------------|
--4--4---4-4---4-4---4-4------4---4-4--------------|


                             PM                    
  E  S S S S S S S S S S S S S  S S S S S S S S S  
--------------------------------------------------|
--------------------------------------------------|
--------------------------------------------------|
-------5-----5-----5-----5------------------------|
----------------------------------------------4---|
--4--4---4-4---4-4---4-4---0-0--0-0-0-0-0-0-6---6-|


  S S S S S S S S S S S S S S S S S S S S S S S S S S S S S S S S S S S S  
--------------------------------------------------------------------------|
--------------------------------------------------------------------------|
--------------------------------------------------------------------------|
----------5-----------------------5-----------------------5---------------|
----4---7---7---6-----1-----4---7---7---6-----1-----4---7---7---6-----1---|
--6---6-------8---8-3---3-6---6-------8---8-3---3-6---6-------8---8-3---3-|


  T  T  T T  S S S S S S S S S S E  S S S S T T S S S T T S  
------------------------------------------------------------|
------------------------------------------------------------|
------------------------------------------------------------|
---------------------8-----------6--L-----------------------|
-------------------6---6---------6--L-6-6-6-6-6-6-6-6-6-6-6-|
--4h-6p-4-0h-4-6-7-------7-6-7-6-4--L-4-4-4-4-4-4-4-4-4-4-4-|


  T  T  T T  S S S S S S S S S S E  S S S S T T S T T S T T S  
--------------------------------------------------------------|
--------------------------------------------------------------|
--------------------------------------------------------------|
---------------------8-----------2--L-------------------------|
-------------------6---6---------2--L-2-2-2-2-2-2-2-2-2-2-2-2-|
--4h-6p-4-0h-4-6-7-------7-6-7-6-0--L-0-0-0-0-0-0-0-0-0-0-0-0-|


  T  T  T T  S S S S S S S S S S E  S S S S T T S S S T T S  
------------------------------------------------------------|
------------------------------------------------------------|
------------------------------------------------------------|
---------------------8-----------6--L-----------------------|
-------------------6---6---------6--L-6-6-6-6-6-6-6-6-6-6-6-|
--4h-6p-4-0h-4-6-7-------7-6-7-6-4--L-4-4-4-4-4-4-4-4-4-4-4-|


  T  T  T T  S S S S S S S S S S E  S S S S T T S T T S T T S  
--------------------------------------------------------------|
--------------------------------------------------------------|
--------------------------------------------------------------|
---------------------8-----------2--L-------------------------|
-------------------6---6---------2--L-2-2-2-2-2-2-2-2-2-2-2-2-|
--4h-6p-4-0h-4-6-7-------7-6-7-6-0--L-0-0-0-0-0-0-0-0-0-0-0-0-|


  E  S S S S S S S S S S S  S S S S S S  S S S S S  
---------------------------------------------------|
---------------------------------------------0-----|
-------------------------------------------3---3---|
-------5-----5-----5-----5h-6---6-----5h-6-------6-|
---------------------------------------------------|
--4--4---4-4---4-4---4-4------4---4-4--------------|


                             PM                    
  E  S S S S S S S S S S S S S  S S S S S S S S S  
--------------------------------------------------|
--------------------------------------------------|
--------------------------------------------------|
-------5-----5-----5-----5------------------------|
----------------------------------------------4---|
--4--4---4-4---4-4---4-4---0-0--0-0-0-0-0-0-6---6-|


  E  S S S S S S S S S S S  S S S S S S  S S S S S  
---------------------------------------------------|
---------------------------------------------0-----|
-------------------------------------------3---3---|
-------5-----5-----5-----5h-6---6-----5h-6-------6-|
---------------------------------------------------|
--4--4---4-4---4-4---4-4------4---4-4--------------|


                             PM                    
  E  S S S S S S S S S S S S S  S S S S S S S S S  
--------------------------------------------------|
--------------------------------------------------|
--------------------------------------------------|
-------5-----5-----5-----5------------------------|
----------------------------------------------4---|
--4--4---4-4---4-4---4-4---0-0--0-0-0-0-0-0-6---6-|


  E  S S S S S S S S S S S  S S S S S S  S S S S S  
---------------------------------------------------|
---------------------------------------------0-----|
-------------------------------------------3---3---|
-------5-----5-----5-----5h-6---6-----5h-6-------6-|
---------------------------------------------------|
--4--4---4-4---4-4---4-4------4---4-4--------------|


                             PM                    
  E  S S S S S S S S S S S S S  S S S S S S S S S  
--------------------------------------------------|
--------------------------------------------------|
--------------------------------------------------|
-------5-----5-----5-----5------------------------|
----------------------------------------------4---|
--4--4---4-4---4-4---4-4---0-0--0-0-0-0-0-0-6---6-|


  E  S S S S S S S S S S S  S S S S S S  S S S S S  
---------------------------------------------------|
---------------------------------------------0-----|
-------------------------------------------3---3---|
-------5-----5-----5-----5h-6---6-----5h-6-------6-|
---------------------------------------------------|
--4--4---4-4---4-4---4-4------4---4-4--------------|


                             PM                    
  E  S S S S S S S S S S S S S  S S S S S S S S S  
--------------------------------------------------|
--------------------------------------------------|
--------------------------------------------------|
-------5-----5-----5-----5------------------------|
----------------------------------------------4---|
--4--4---4-4---4-4---4-4---0-0--0-0-0-0-0-0-6---6-|


  S S S S S S S S S S S S S S S S S S S S S S S S S S S S S S S S S S S S  
--------------------------------------------------------------------------|
--------------------------------------------------------------------------|
--------------------------------------------------------------------------|
----------5-----------------------5-----------------------5---------------|
----4---7---7---6-----1-----4---7---7---6-----1-----4---7---7---6-----1---|
--6---6-------8---8-3---3-6---6-------8---8-3---3-6---6-------8---8-3---3-|


  T  T  T T  S S S S S S S S S S E  S S S S T T S S S T T S  
------------------------------------------------------------|
------------------------------------------------------------|
------------------------------------------------------------|
---------------------8-----------6--L-----------------------|
-------------------6---6---------6--L-6-6-6-6-6-6-6-6-6-6-6-|
--4h-6p-4-0h-4-6-7-------7-6-7-6-4--L-4-4-4-4-4-4-4-4-4-4-4-|


  T  T  T T  S S S S S S S S S S E  S S S S T T S T T S T T S  
--------------------------------------------------------------|
--------------------------------------------------------------|
--------------------------------------------------------------|
---------------------8-----------2--L-------------------------|
-------------------6---6---------2--L-2-2-2-2-2-2-2-2-2-2-2-2-|
--4h-6p-4-0h-4-6-7-------7-6-7-6-0--L-0-0-0-0-0-0-0-0-0-0-0-0-|


  T  T  T T  S S S S S S S S S S E  S S S S T T S S S T T S  
------------------------------------------------------------|
------------------------------------------------------------|
------------------------------------------------------------|
---------------------8-----------6--L-----------------------|
-------------------6---6---------6--L-6-6-6-6-6-6-6-6-6-6-6-|
--4h-6p-4-0h-4-6-7-------7-6-7-6-4--L-4-4-4-4-4-4-4-4-4-4-4-|


  T  T  T T  S S S S S S S S S S E  S S S S T T S T T S T T S  
--------------------------------------------------------------|
--------------------------------------------------------------|
--------------------------------------------------------------|
---------------------8-----------2--L-------------------------|
-------------------6---6---------2--L-2-2-2-2-2-2-2-2-2-2-2-2-|
--4h-6p-4-0h-4-6-7-------7-6-7-6-0--L-0-0-0-0-0-0-0-0-0-0-0-0-|


  T  T  T T  S S S S S S S S S S E  S S S S T T S S S T T S  
------------------------------------------------------------|
------------------------------------------------------------|
------------------------------------------------------------|
---------------------8-----------6--L-----------------------|
-------------------6---6---------6--L-6-6-6-6-6-6-6-6-6-6-6-|
--4h-6p-4-0h-4-6-7-------7-6-7-6-4--L-4-4-4-4-4-4-4-4-4-4-4-|


  T  T  T T  S S S S S S S S S S E  S S S S T T S T T S T T S  
--------------------------------------------------------------|
--------------------------------------------------------------|
--------------------------------------------------------------|
---------------------8-----------2--L-------------------------|
-------------------6---6---------2--L-2-2-2-2-2-2-2-2-2-2-2-2-|
--4h-6p-4-0h-4-6-7-------7-6-7-6-0--L-0-0-0-0-0-0-0-0-0-0-0-0-|


  T  T  T T  S S S S S S S S S S E  S S S S T T S S S T T S  
------------------------------------------------------------|
------------------------------------------------------------|
------------------------------------------------------------|
---------------------8-----------6--L-----------------------|
-------------------6---6---------6--L-6-6-6-6-6-6-6-6-6-6-6-|
--4h-6p-4-0h-4-6-7-------7-6-7-6-4--L-4-4-4-4-4-4-4-4-4-4-4-|


  T  T  T T  S S S S S S S S S S E  S S S S T T S T T S T T S  
--------------------------------------------------------------|
--------------------------------------------------------------|
--------------------------------------------------------------|
---------------------8-----------2--L-------------------------|
-------------------6---6---------2--L-2-2-2-2-2-2-2-2-2-2-2-2-|
--4h-6p-4-0h-4-6-7-------7-6-7-6-0--L-0-0-0-0-0-0-0-0-0-0-0-0-|


  E.  S S S E.  S S S E.  S S S E.  S S S  
------------------------------------------|
------------------------------------------|
------------------------------------------|
------------------------------------------|
--4---4-4-4-4---4-4-4-6---6-6-6-6---6-6-6-|
--2---2-2-2-2---2-2-2-3---3-3-3-3---3-3-3-|


        PM PM PM PM PM PM PM PM PM PM PM PM PM PM PM PM PM PM                   
  S S S T  T  T  T  T  T  T  T  T  T  T  T  T  T  T  T  T  T  S S S T T T T T T 
--------------------------------------------------------------------------------
--------------------------------------------------------------------------------
--------------------------------------------------------------------------------
--------------------------------------------------------------------------------
--6-L-L-6--6--6--6--6--6--6--6--6--6--6--6--6--6--6--6--6--6--4-L-L-------------
--4-L-L-4--4--4--4--4--4--4--4--4--4--4--4--4--4--4--4--4--4--0-L-L-0-0-0-0-0-0-


        PM PM PM PM PM PM PM PM PM PM PM PM PM PM PM PM PM PM                   
  S S S T  T  T  T  T  T  T  T  T  T  T  T  T  T  T  T  T  T  S S S S S S S S S 
--------------------------------------------------------------------------------
--------------------------------------------------------------------------------
--------------------------------------------------------------------------------
----------------------------------------------------------------------------5---
--6-L-L-6--6--6--6--6--6--6--6--6--6--6--6--6--6--6--6--6--6--4-L-L-------------
--4-L-L-4--4--4--4--4--4--4--4--4--4--4--4--4--4--4--4--4--4--0-L-L-0-0-0-3---3-


        PM PM PM PM PM PM PM PM PM PM PM PM PM PM PM PM PM PM                   
  S S S T  T  T  T  T  T  T  T  T  T  T  T  T  T  T  T  T  T  S S S T T T T T T 
--------------------------------------------------------------------------------
--------------------------------------------------------------------------------
--------------------------------------------------------------------------------
--------------------------------------------------------------------------------
--6-L-L-6--6--6--6--6--6--6--6--6--6--6--6--6--6--6--6--6--6--4-L-L-------------
--4-L-L-4--4--4--4--4--4--4--4--4--4--4--4--4--4--4--4--4--4--0-L-L-0-0-0-0-0-0-


        PM PM PM PM PM PM PM PM PM PM PM PM PM PM PM PM PM PM                   
  S S S T  T  T  T  T  T  T  T  T  T  T  T  T  T  T  T  T  T  S S S S S S S S S 
--------------------------------------------------------------------------------
--------------------------------------------------------------------------------
--------------------------------------------------------------------------------
----------------------------------------------------------------------------5---
--6-L-L-6--6--6--6--6--6--6--6--6--6--6--6--6--6--6--6--6--6--4-L-L-------------
--4-L-L-4--4--4--4--4--4--4--4--4--4--4--4--4--4--4--4--4--4--0-L-L-0-0-0-3---3-


  S S S S S S S S S S S S S S S S S S S S S S S S S S S S S S S S  
------------------------------------------------------------------|
------------------------------------------------------------------|
------------------------------------------------------------------|
--6---------------6---------------6---------------2---------------|
--6---------------6---------------6---------------2---------------|
--4---------------4---------------4---------------0---------------|


  S T  T  T T  T  T T  T  T T T T T T S T  T  T T  T  T T  T  T T T T T T S T  T
--------------------------------------------------------------------------------
--------------------------------------------------------------------------------
----4p-3p-0-4p-3p-0-4p-3p-0-------------4p-3p-0-4p-3p-0-4p-3p-0-------------4p-3
--------------------------------------------------------------------------------
--------------------------------------------------------------------------------
--4-------------------------3-2-0-2-3-4-------------------------3-2-0-2-3-4-----


  S T  T  T T  T  T T  T  T T T T T T S T  T  T T  T  T T  T  T T T T T T S T  T
--------------------------------------------------------------------------------
--------------------------------------------------------------------------------
----4p-3p-0-4p-3p-0-4p-3p-0-------------4p-3p-0-4p-3p-0-4p-3p-0-------------4p-3
--------------------------------------------------------------------------------
--------------------------------------------------------------------------------
--4-------------------------3-2-0-2-3-4-------------------------3-2-0-2-3-4-----


  E  S S S S S S S S S S S S S S S S S S S S S S  
-------------------------------------------------|
-------------------------------------------------|
-------------------------------------------------|
-------5-----5-----5-----5-----5-----5-----5-----|
-------------------------------------------------|
--4--4---4-4---4-4---4-4---4-4---4-4---4-4---4-4-|


                                             W   
  E  S S S S S S S S S S S S S S S S S S S S E   
------------------------------------------------|
------------------------------------------------|
------------------------------------------------|
------------------------------------------------|
-------5-----5-----5-----5-----5-----5-----5----|
--7--7---7-7---7-7---7-7---7-7---7-7---7-7---6--|


  E  S S S S S S S S S S S S S S S S S S S S S S  
-------------------------------------------------|
-------------------------------------------------|
-------------------------------------------------|
-------5-----5-----5-----5-----5-----5-----5-----|
-------------------------------------------------|
--4--4---4-4---4-4---4-4---4-4---4-4---4-4---4-4-|


                                             W   
  E  S S S S S S S S S S S S S S S S S S S S E   
------------------------------------------------|
------------------------------------------------|
------------------------------------------------|
------------------------------------------------|
-------5-----5-----5-----5-----5-----5-----5----|
--7--7---7-7---7-7---7-7---7-7---7-7---7-7---6--|


  T  T  T T  S S S S S S S S S S E  S S S S T T S S S T T S  
------------------------------------------------------------|
------------------------------------------------------------|
------------------------------------------------------------|
---------------------8-----------6--L-----------------------|
-------------------6---6---------6--L-6-6-6-6-6-6-6-6-6-6-6-|
--4h-6p-4-0h-4-6-7-------7-6-7-6-4--L-4-4-4-4-4-4-4-4-4-4-4-|


  T  T  T T  S S S S S S S S S S E  S S S S T T S T T S T T S  
--------------------------------------------------------------|
--------------------------------------------------------------|
--------------------------------------------------------------|
---------------------8-----------2--L-------------------------|
-------------------6---6---------2--L-2-2-2-2-2-2-2-2-2-2-2-2-|
--4h-6p-4-0h-4-6-7-------7-6-7-6-0--L-0-0-0-0-0-0-0-0-0-0-0-0-|


  T  T  T T  S S S S S S S S S S E  S S S S T T S S S T T S  
------------------------------------------------------------|
------------------------------------------------------------|
------------------------------------------------------------|
---------------------8-----------6--L-----------------------|
-------------------6---6---------6--L-6-6-6-6-6-6-6-6-6-6-6-|
--4h-6p-4-0h-4-6-7-------7-6-7-6-4--L-4-4-4-4-4-4-4-4-4-4-4-|


  T  T  T T  S S S S S S S S S S E  S S S S T T S T T S T T S  
--------------------------------------------------------------|
--------------------------------------------------------------|
--------------------------------------------------------------|
---------------------8-----------2--L-------------------------|
-------------------6---6---------2--L-2-2-2-2-2-2-2-2-2-2-2-2-|
--4h-6p-4-0h-4-6-7-------7-6-7-6-0--L-0-0-0-0-0-0-0-0-0-0-0-0-|


  T  T  T T  S S S S S S S S S S E  S S S S T T S S S T T S  
------------------------------------------------------------|
------------------------------------------------------------|
------------------------------------------------------------|
---------------------8-----------6--L-----------------------|
-------------------6---6---------6--L-6-6-6-6-6-6-6-6-6-6-6-|
--4h-6p-4-0h-4-6-7-------7-6-7-6-4--L-4-4-4-4-4-4-4-4-4-4-4-|


  T  T  T T  S S S S S S S S S S E  S S S S T T S T T S T T S  
--------------------------------------------------------------|
--------------------------------------------------------------|
--------------------------------------------------------------|
---------------------8-----------2--L-------------------------|
-------------------6---6---------2--L-2-2-2-2-2-2-2-2-2-2-2-2-|
--4h-6p-4-0h-4-6-7-------7-6-7-6-0--L-0-0-0-0-0-0-0-0-0-0-0-0-|


  T  T  T T  S S S S S S S S S S E  S S S S T T S S S T T S  
------------------------------------------------------------|
------------------------------------------------------------|
------------------------------------------------------------|
---------------------8-----------6--L-----------------------|
-------------------6---6---------6--L-6-6-6-6-6-6-6-6-6-6-6-|
--4h-6p-4-0h-4-6-7-------7-6-7-6-4--L-4-4-4-4-4-4-4-4-4-4-4-|


  T  T  T T  S S S S S S S S S S E  S S S S T T S T T S T T S  
--------------------------------------------------------------|
--------------------------------------------------------------|
--------------------------------------------------------------|
---------------------8-----------2--L-------------------------|
-------------------6---6---------2--L-2-2-2-2-2-2-2-2-2-2-2-2-|
--4h-6p-4-0h-4-6-7-------7-6-7-6-0--L-0-0-0-0-0-0-0-0-0-0-0-0-|


  T  T  T T  S S S S S S S S S S E  S S S S T T S S S T T S  
------------------------------------------------------------|
------------------------------------------------------------|
------------------------------------------------------------|
---------------------8-----------6--L-----------------------|
-------------------6---6---------6--L-6-6-6-6-6-6-6-6-6-6-6-|
--4h-6p-4-0h-4-6-7-------7-6-7-6-4--L-4-4-4-4-4-4-4-4-4-4-4-|


  T  T  T T  S S S S S S S S S S E  S S S S T T S T T S T T S  
--------------------------------------------------------------|
--------------------------------------------------------------|
--------------------------------------------------------------|
---------------------8-----------2--L-------------------------|
-------------------6---6---------2--L-2-2-2-2-2-2-2-2-2-2-2-2-|
--4h-6p-4-0h-4-6-7-------7-6-7-6-0--L-0-0-0-0-0-0-0-0-0-0-0-0-|


  T  T  T T  S S S S S S S S S S E  S S S S T T S S S T T S  
------------------------------------------------------------|
------------------------------------------------------------|
------------------------------------------------------------|
---------------------8-----------6--L-----------------------|
-------------------6---6---------6--L-6-6-6-6-6-6-6-6-6-6-6-|
--4h-6p-4-0h-4-6-7-------7-6-7-6-4--L-4-4-4-4-4-4-4-4-4-4-4-|


  T  T  T T  S S S S S S S S S S E  S S S S T T S T T S T T S  
--------------------------------------------------------------|
--------------------------------------------------------------|
--------------------------------------------------------------|
---------------------8-----------2--L-------------------------|
-------------------6---6---------2--L-2-2-2-2-2-2-2-2-2-2-2-2-|
--4h-6p-4-0h-4-6-7-------7-6-7-6-0--L-0-0-0-0-0-0-0-0-0-0-0-0-|


  E  E  E  S S S S S S H.              E  E  E  S S S S S S H.            
-----------4-L-L-L-L-L--------------|-----------4-L-L-L-L-L--------------|
-------------4-L-L-L-L--------------|-------------4-L-L-L-L--------------|
---------------4-L-L-L--------------|---------------4-L-L-L--------------|
--6--L--L--L-L-L-6-L-L-4------------|--6--L--L--L-L-L-6-L-L-4------------|
--6--L--L--L-L-L-L-L-L-5------------|--6--L--L--L-L-L-L-L-L-5------------|
--4--L--L--L-L-L-L-L-L-7------------|--4--L--L--L-L-L-L-L-L-7------------|


  E  E  E  S S S S S S H.              E  E  E  S S S S S S H.            
-----------4-L-L-L-L-L--------------|-----------4-L-L-L-L-L--------------|
-------------4-L-L-L-L--------------|-------------4-L-L-L-L--------------|
---------------4-L-L-L--------------|---------------4-L-L-L--------------|
--6--L--L--L-L-L-6-L-L-4------------|--6--L--L--L-L-L-6-L-L-4------------|
--6--L--L--L-L-L-L-L-L-5------------|--6--L--L--L-L-L-L-L-L-5------------|
--4--L--L--L-L-L-L-L-L-7------------|--4--L--L--L-L-L-L-L-L-7------------|


  H.           H.              H.           H.            
--4-------------------------|--4-------------------------|
--4-------------------------|--4-------------------------|
--4-------------------------|--4-------------------------|
--6------------4------------|--6------------4------------|
--6------------5------------|--6------------5------------|
--4------------7------------|--4------------7------------|


  H.           H.              H.           H.            
--4-------------------------|--4-------------------------|
--4-------------------------|--4-------------------------|
--4-------------------------|--4-------------------------|
--6------------4------------|--6------------4------------|
--6------------5------------|--6------------5------------|
--4------------7------------|--4------------7------------|


  H.           H.              H.           H.            
--4-------------------------|--4-------------------------|
--4-------------------------|--4-------------------------|
--4-------------------------|--4-------------------------|
--6------------4------------|--6------------4------------|
--6------------5------------|--6------------5------------|
--4------------7------------|--4------------7------------|


  H.           H.              H.           H.            
--4-------------------------|--4-------------------------|
--4-------------------------|--4-------------------------|
--4-------------------------|--4-------------------------|
--6------------4------------|--6------------4------------|
--6------------5------------|--6------------5------------|
--4------------7------------|--4------------7------------|


  H.           H.              H.           H.            
--4-------------------------|--4-------------------------|
--4-------------------------|--4-------------------------|
--4-------------------------|--4-------------------------|
--6------------4------------|--6------------4------------|
--6------------5------------|--6------------5------------|
--4------------7------------|--4------------7------------|


  H.           H.              W.                  W.                 
--4-------------------------|--4----------------|--L----------------||
--4-------------------------|--4----------------|--L----------------||
--4-------------------------|--4----------------|--L----------------||
--6------------4------------|--6----------------|--L----------------||
--6------------5------------|--6----------------|--L----------------||
--4------------7------------|--4----------------|--L----------------||



www.throwntothesun.com
Tap to rate this tab
 
# A B C D E F G H I J K L M N O P Q R S T U V W X Y Z